ISO-10303-21;
HEADER;
FILE_DESCRIPTION(('STEP AP203'),'1');
FILE_NAME(' ','  ',('TraceParts'),('TraceParts S.A.'),'XStep 1.0',' ',' ');
FILE_SCHEMA(('CONFIG_CONTROL_DESIGN'));
ENDSEC;
DATA;
#1=DESIGN_CONTEXT('',#27,'design');
#2=APPLICATION_PROTOCOL_DEFINITION('INTERNATIONAL STANDARD','config_control_design',1994,#27);
#3=PRODUCT_CATEGORY_RELATIONSHIP('NONE','NONE',#28,#29);
#4=DATE_AND_TIME(#30,#31);
#5=DATE_TIME_ROLE('creation_date');
#6=DATE_TIME_ROLE('classification_date');
#7=PERSON_AND_ORGANIZATION_ROLE('creator');
#8=PERSON_AND_ORGANIZATION_ROLE('design_supplier');
#9=PERSON_AND_ORGANIZATION_ROLE('classification_officer');
#10=PERSON_AND_ORGANIZATION_ROLE('design_owner');
#11=APPROVAL_PERSON_ORGANIZATION(#32,#33,#34);
#12=APPROVAL_DATE_TIME(#4,#33);
#13=CC_DESIGN_APPROVAL(#33,(#35,#36,#37));
#14=CC_DESIGN_DATE_AND_TIME_ASSIGNMENT(#4,#5,(#37));
#15=CC_DESIGN_DATE_AND_TIME_ASSIGNMENT(#4,#6,(#35));
#16=CC_DESIGN_PERSON_AND_ORGANIZATION_ASSIGNMENT(#32,#10,(#38));
#17=CC_DESIGN_PERSON_AND_ORGANIZATION_ASSIGNMENT(#32,#7,(#37));
#18=CC_DESIGN_PERSON_AND_ORGANIZATION_ASSIGNMENT(#32,#7,(#36));
#19=CC_DESIGN_PERSON_AND_ORGANIZATION_ASSIGNMENT(#32,#8,(#36));
#20=CC_DESIGN_SECURITY_CLASSIFICATION(#35,(#36));
#21=CC_DESIGN_PERSON_AND_ORGANIZATION_ASSIGNMENT(#32,#9,(#35));
#22=SHAPE_DEFINITION_REPRESENTATION(#39,#40);
#23= (GEOMETRIC_REPRESENTATION_CONTEXT(3)GLOBAL_UNCERTAINTY_ASSIGNED_CONTEXT((#43))GLOBAL_UNIT_ASSIGNED_CONTEXT((#45,#46,#47))REPRESENTATION_CONTEXT('NONE','WORKSPACE'));
#27=APPLICATION_CONTEXT('CONFIGURATION CONTROLLED 3D DESIGNS OF MECHANICAL PARTS AND ASSEMBLIES');
#28=PRODUCT_CATEGORY('part','NONE');
#29=PRODUCT_RELATED_PRODUCT_CATEGORY('detail',' ',(#38));
#30=CALENDAR_DATE(2011,16,1);
#31=LOCAL_TIME(9,23,59.0,#49);
#32=PERSON_AND_ORGANIZATION(#50,#51);
#33=APPROVAL(#52,'SOLID MODEL');
#34=APPROVAL_ROLE('APPROVED');
#35=SECURITY_CLASSIFICATION('','',#53);
#36=PRODUCT_DEFINITION_FORMATION_WITH_SPECIFIED_SOURCE(' ','NONE',#38,.NOT_KNOWN.);
#37=PRODUCT_DEFINITION('NONE','NONE',#36,#1);
#38=PRODUCT('1','1','PART-1-DESC',(#54));
#39=PRODUCT_DEFINITION_SHAPE('NONE','NONE',#37);
#40=ADVANCED_BREP_SHAPE_REPRESENTATION('1',(#55,#56),#23);
#43=UNCERTAINTY_MEASURE_WITH_UNIT(LENGTH_MEASURE(1.0E-006),#45,'','');
#45= (CONVERSION_BASED_UNIT('MILLIMETRE',#59)LENGTH_UNIT()NAMED_UNIT(#62));
#46= (NAMED_UNIT(#64)PLANE_ANGLE_UNIT()SI_UNIT($,.RADIAN.));
#47= (NAMED_UNIT(#64)SOLID_ANGLE_UNIT()SI_UNIT($,.STERADIAN.));
#49=COORDINATED_UNIVERSAL_TIME_OFFSET(1,0,.AHEAD.);
#50=PERSON('','UNSPECIFIED',$,$,$,$);
#51=ORGANIZATION('UNSPECIFIED','UNSPECIFIED','UNSPECIFIED');
#52=APPROVAL_STATUS('approved');
#53=SECURITY_CLASSIFICATION_LEVEL('unclassified');
#54=MECHANICAL_CONTEXT('',#27,'mechanical');
#55=MANIFOLD_SOLID_BREP('1',#70);
#56=AXIS2_PLACEMENT_3D('',#71,#72,#73);
#59=LENGTH_MEASURE_WITH_UNIT(LENGTH_MEASURE(1.0),#74);
#62=DIMENSIONAL_EXPONENTS(1.0,0.0,0.0,0.0,0.0,0.0,0.0);
#64=DIMENSIONAL_EXPONENTS(0.0,0.0,0.0,0.0,0.0,0.0,0.0);
#70=CLOSED_SHELL('',(#75,#76,#77,#78,#79,#80,#81,#82,#83,#84,#85));
#71=CARTESIAN_POINT('',(0.0,0.0,0.0));
#72=DIRECTION('',(0.0,0.0,1.0));
#73=DIRECTION('',(1.0,0.0,0.0));
#74= (NAMED_UNIT(#62)LENGTH_UNIT()SI_UNIT(.MILLI.,.METRE.));
#75=ADVANCED_FACE('',(#87),#88,.T.);
#76=ADVANCED_FACE('',(#89),#90,.T.);
#77=ADVANCED_FACE('',(#91),#92,.F.);
#78=ADVANCED_FACE('',(#93),#94,.T.);
#79=ADVANCED_FACE('',(#95),#96,.T.);
#80=ADVANCED_FACE('',(#97),#98,.F.);
#81=ADVANCED_FACE('',(#99),#100,.T.);
#82=ADVANCED_FACE('',(#101),#102,.T.);
#83=ADVANCED_FACE('',(#103,#104),#105,.T.);
#84=ADVANCED_FACE('',(#106,#107),#108,.T.);
#85=ADVANCED_FACE('',(#109),#110,.T.);
#87=FACE_OUTER_BOUND('',#111,.T.);
#88=CYLINDRICAL_SURFACE('',#112,1.5);
#89=FACE_OUTER_BOUND('',#113,.T.);
#90=CYLINDRICAL_SURFACE('',#114,1.3);
#91=FACE_OUTER_BOUND('',#115,.T.);
#92=CYLINDRICAL_SURFACE('',#116,0.5);
#93=FACE_OUTER_BOUND('',#117,.T.);
#94=SPHERICAL_SURFACE('',#118,0.5);
#95=FACE_OUTER_BOUND('',#119,.T.);
#96=SPHERICAL_SURFACE('',#120,0.5);
#97=FACE_OUTER_BOUND('',#121,.T.);
#98=CYLINDRICAL_SURFACE('',#122,0.5);
#99=FACE_OUTER_BOUND('',#123,.T.);
#100=CYLINDRICAL_SURFACE('',#124,1.3);
#101=FACE_OUTER_BOUND('',#125,.T.);
#102=PLANE('',#126);
#103=FACE_OUTER_BOUND('',#127,.T.);
#104=FACE_BOUND('',#128,.T.);
#105=CYLINDRICAL_SURFACE('',#129,1.5);
#106=FACE_BOUND('',#130,.T.);
#107=FACE_OUTER_BOUND('',#131,.T.);
#108=PLANE('',#132);
#109=FACE_OUTER_BOUND('',#133,.T.);
#110=PLANE('',#134);
#111=EDGE_LOOP('',(#135,#136,#137,#138));
#112=AXIS2_PLACEMENT_3D('',#139,#140,#141);
#113=EDGE_LOOP('',(#142,#143,#144,#145));
#114=AXIS2_PLACEMENT_3D('',#146,#147,#148);
#115=EDGE_LOOP('',(#149,#150,#151,#152));
#116=AXIS2_PLACEMENT_3D('',#153,#154,#155);
#117=EDGE_LOOP('',(#156,#157,#158));
#118=AXIS2_PLACEMENT_3D('',#159,#160,#161);
#119=EDGE_LOOP('',(#162,#163,#164));
#120=AXIS2_PLACEMENT_3D('',#165,#166,#167);
#121=EDGE_LOOP('',(#168,#169,#170,#171));
#122=AXIS2_PLACEMENT_3D('',#172,#173,#174);
#123=EDGE_LOOP('',(#175,#176,#177,#178));
#124=AXIS2_PLACEMENT_3D('',#179,#180,#181);
#125=EDGE_LOOP('',(#182,#183));
#126=AXIS2_PLACEMENT_3D('',#184,#185,#186);
#127=EDGE_LOOP('',(#187,#188,#189,#190));
#128=EDGE_LOOP('',(#191,#192));
#129=AXIS2_PLACEMENT_3D('',#193,#194,#195);
#130=EDGE_LOOP('',(#196,#197));
#131=EDGE_LOOP('',(#198,#199));
#132=AXIS2_PLACEMENT_3D('',#200,#201,#202);
#133=EDGE_LOOP('',(#203,#204));
#134=AXIS2_PLACEMENT_3D('',#205,#206,#207);
#135=ORIENTED_EDGE('',*,*,#208,.F.);
#136=ORIENTED_EDGE('',*,*,#209,.F.);
#137=ORIENTED_EDGE('',*,*,#210,.F.);
#138=ORIENTED_EDGE('',*,*,#211,.F.);
#139=CARTESIAN_POINT('',(0.0,-11.0,0.0));
#140=DIRECTION('',(0.0,-1.0,0.0));
#141=DIRECTION('',(1.0,0.0,0.0));
#142=ORIENTED_EDGE('',*,*,#212,.F.);
#143=ORIENTED_EDGE('',*,*,#213,.F.);
#144=ORIENTED_EDGE('',*,*,#214,.F.);
#145=ORIENTED_EDGE('',*,*,#215,.F.);
#146=CARTESIAN_POINT('',(0.0,-32.0,0.0));
#147=DIRECTION('',(0.0,-1.0,0.0));
#148=DIRECTION('',(1.0,0.0,0.0));
#149=ORIENTED_EDGE('',*,*,#216,.F.);
#150=ORIENTED_EDGE('',*,*,#217,.F.);
#151=ORIENTED_EDGE('',*,*,#218,.F.);
#152=ORIENTED_EDGE('',*,*,#219,.T.);
#153=CARTESIAN_POINT('',(0.0,-16.0,3.5));
#154=DIRECTION('',(0.0,0.0,-1.0));
#155=DIRECTION('',(1.0,0.0,0.0));
#156=ORIENTED_EDGE('',*,*,#220,.F.);
#157=ORIENTED_EDGE('',*,*,#219,.F.);
#158=ORIENTED_EDGE('',*,*,#221,.F.);
#159=CARTESIAN_POINT('',(0.0,-16.0,1.0));
#160=DIRECTION('',(0.0,0.0,1.0));
#161=DIRECTION('',(1.0,0.0,0.0));
#162=ORIENTED_EDGE('',*,*,#220,.T.);
#163=ORIENTED_EDGE('',*,*,#221,.T.);
#164=ORIENTED_EDGE('',*,*,#222,.F.);
#165=CARTESIAN_POINT('',(0.0,-16.0,1.0));
#166=DIRECTION('',(0.0,0.0,1.0));
#167=DIRECTION('',(1.0,0.0,0.0));
#168=ORIENTED_EDGE('',*,*,#216,.T.);
#169=ORIENTED_EDGE('',*,*,#222,.T.);
#170=ORIENTED_EDGE('',*,*,#218,.T.);
#171=ORIENTED_EDGE('',*,*,#223,.F.);
#172=CARTESIAN_POINT('',(0.0,-16.0,3.5));
#173=DIRECTION('',(0.0,0.0,-1.0));
#174=DIRECTION('',(1.0,0.0,0.0));
#175=ORIENTED_EDGE('',*,*,#212,.T.);
#176=ORIENTED_EDGE('',*,*,#224,.F.);
#177=ORIENTED_EDGE('',*,*,#214,.T.);
#178=ORIENTED_EDGE('',*,*,#225,.F.);
#179=CARTESIAN_POINT('',(0.0,-32.0,0.0));
#180=DIRECTION('',(0.0,-1.0,0.0));
#181=DIRECTION('',(1.0,0.0,0.0));
#182=ORIENTED_EDGE('',*,*,#225,.T.);
#183=ORIENTED_EDGE('',*,*,#213,.T.);
#184=CARTESIAN_POINT('',(0.0,-42.0,0.0));
#185=DIRECTION('',(0.0,-1.0,0.0));
#186=DIRECTION('',(-1.0,0.0,0.0));
#187=ORIENTED_EDGE('',*,*,#208,.T.);
#188=ORIENTED_EDGE('',*,*,#226,.F.);
#189=ORIENTED_EDGE('',*,*,#210,.T.);
#190=ORIENTED_EDGE('',*,*,#227,.F.);
#191=ORIENTED_EDGE('',*,*,#223,.T.);
#192=ORIENTED_EDGE('',*,*,#217,.T.);
#193=CARTESIAN_POINT('',(0.0,-11.0,0.0));
#194=DIRECTION('',(0.0,-1.0,0.0));
#195=DIRECTION('',(1.0,0.0,0.0));
#196=ORIENTED_EDGE('',*,*,#215,.T.);
#197=ORIENTED_EDGE('',*,*,#224,.T.);
#198=ORIENTED_EDGE('',*,*,#227,.T.);
#199=ORIENTED_EDGE('',*,*,#209,.T.);
#200=CARTESIAN_POINT('',(0.0,-22.0,0.0));
#201=DIRECTION('',(0.0,-1.0,0.0));
#202=DIRECTION('',(-1.0,0.0,0.0));
#203=ORIENTED_EDGE('',*,*,#211,.T.);
#204=ORIENTED_EDGE('',*,*,#226,.T.);
#205=CARTESIAN_POINT('',(0.0,0.0,0.0));
#206=DIRECTION('',(0.0,1.0,0.0));
#207=DIRECTION('',(1.0,0.0,0.0));
#208=EDGE_CURVE('',#228,#229,#230,.T.);
#209=EDGE_CURVE('',#231,#228,#232,.T.);
#210=EDGE_CURVE('',#233,#231,#234,.T.);
#211=EDGE_CURVE('',#229,#233,#235,.T.);
#212=EDGE_CURVE('',#236,#237,#238,.T.);
#213=EDGE_CURVE('',#239,#236,#240,.T.);
#214=EDGE_CURVE('',#241,#239,#242,.T.);
#215=EDGE_CURVE('',#237,#241,#243,.T.);
#216=EDGE_CURVE('',#244,#245,#246,.T.);
#217=EDGE_CURVE('',#247,#244,#248,.T.);
#218=EDGE_CURVE('',#249,#247,#250,.T.);
#219=EDGE_CURVE('',#249,#245,#251,.T.);
#220=EDGE_CURVE('',#245,#252,#253,.T.);
#221=EDGE_CURVE('',#252,#249,#254,.T.);
#222=EDGE_CURVE('',#245,#249,#255,.T.);
#223=EDGE_CURVE('',#244,#247,#256,.T.);
#224=EDGE_CURVE('',#241,#237,#257,.T.);
#225=EDGE_CURVE('',#236,#239,#258,.T.);
#226=EDGE_CURVE('',#233,#229,#259,.T.);
#227=EDGE_CURVE('',#228,#231,#260,.T.);
#228=VERTEX_POINT('',#261);
#229=VERTEX_POINT('',#262);
#230=LINE('',#263,#264);
#231=VERTEX_POINT('',#265);
#232=CIRCLE('',#266,1.5);
#233=VERTEX_POINT('',#267);
#234=LINE('',#268,#269);
#235=CIRCLE('',#270,1.5);
#236=VERTEX_POINT('',#271);
#237=VERTEX_POINT('',#272);
#238=LINE('',#273,#274);
#239=VERTEX_POINT('',#275);
#240=CIRCLE('',#276,1.3);
#241=VERTEX_POINT('',#277);
#242=LINE('',#278,#279);
#243=CIRCLE('',#280,1.3);
#244=VERTEX_POINT('',#281);
#245=VERTEX_POINT('',#282);
#246=LINE('',#283,#284);
#247=VERTEX_POINT('',#285);
#248=B_SPLINE_CURVE_WITH_KNOTS('',3,(#286,#287,#288,#289,#290,#291,#292,#293,#294,#295,#296,#297,#298,#299,#300,#301,#302,#303),.UNSPECIFIED.,.F.,.F.,(4,2,2,2,2,2,2,2,4),(1.51940029365148,1.70936938426332,1.89933847487517,2.08921945767619,2.27910044047722,2.46898142327825,2.65886240607928,2.84883149669112,3.03880058730296),.UNSPECIFIED.);
#249=VERTEX_POINT('',#304);
#250=LINE('',#305,#306);
#251=CIRCLE('',#307,0.5);
#252=VERTEX_POINT('',#308);
#253=CIRCLE('',#309,0.5);
#254=CIRCLE('',#310,0.5);
#255=CIRCLE('',#311,0.5);
#256=B_SPLINE_CURVE_WITH_KNOTS('',3,(#312,#313,#314,#315,#316,#317,#318,#319,#320,#321,#322,#323,#324,#325,#326,#327,#328,#329),.UNSPECIFIED.,.F.,.F.,(4,2,2,2,2,2,2,2,4),(0.0,0.189969090611843,0.379938181223686,0.569819164024713,0.75970014682574,0.949581129626768,1.1394621124278,1.32943120303964,1.51940029365148),.UNSPECIFIED.);
#257=CIRCLE('',#330,1.3);
#258=CIRCLE('',#331,1.3);
#259=CIRCLE('',#332,1.5);
#260=CIRCLE('',#333,1.5);
#261=CARTESIAN_POINT('',(1.5,-22.0,0.0));
#262=CARTESIAN_POINT('',(1.5,0.0,0.0));
#263=CARTESIAN_POINT('',(1.5,-11.0,1.83690953073357E-016));
#264=VECTOR('',#334,1.0);
#265=CARTESIAN_POINT('',(-1.5,-22.0,-1.83690953073357E-016));
#266=AXIS2_PLACEMENT_3D('',#335,#336,#337);
#267=CARTESIAN_POINT('',(-1.5,0.0,-1.83690953073357E-016));
#268=CARTESIAN_POINT('',(-1.5,-11.0,-1.83690953073357E-016));
#269=VECTOR('',#338,1.0);
#270=AXIS2_PLACEMENT_3D('',#339,#340,#341);
#271=CARTESIAN_POINT('',(1.3,-42.0,0.0));
#272=CARTESIAN_POINT('',(1.3,-22.0,0.0));
#273=CARTESIAN_POINT('',(1.3,-32.0,1.59198825996909E-016));
#274=VECTOR('',#342,1.0);
#275=CARTESIAN_POINT('',(-1.3,-42.0,-1.59198825996909E-016));
#276=AXIS2_PLACEMENT_3D('',#343,#344,#345);
#277=CARTESIAN_POINT('',(-1.3,-22.0,-1.59198825996909E-016));
#278=CARTESIAN_POINT('',(-1.3,-32.0,-1.59198825996909E-016));
#279=VECTOR('',#346,1.0);
#280=AXIS2_PLACEMENT_3D('',#347,#348,#349);
#281=CARTESIAN_POINT('',(0.5,-16.0,1.41421356237309));
#282=CARTESIAN_POINT('',(0.5,-16.0,1.0));
#283=CARTESIAN_POINT('',(0.5,-16.0,1.25013062897775));
#284=VECTOR('',#350,1.0);
#285=CARTESIAN_POINT('',(-0.5,-16.0,1.41421356237309));
#286=CARTESIAN_POINT('',(-0.5,-16.0,1.41421356237309));
#287=CARTESIAN_POINT('',(-0.5,-15.9366769697961,1.41421356237309));
#288=CARTESIAN_POINT('',(-0.487245169634406,-15.8694990132682,1.41891339143563));
#289=CARTESIAN_POINT('',(-0.436076453813176,-15.7464734100212,1.43546520638117));
#290=CARTESIAN_POINT('',(-0.397685239999852,-15.6905784588133,1.44703442803149));
#291=CARTESIAN_POINT('',(-0.309442009572505,-15.602335228386,1.46843655507841));
#292=CARTESIAN_POINT('',(-0.253538905978703,-15.5639282569417,1.4797184776517));
#293=CARTESIAN_POINT('',(-0.130483068610429,-15.5127477895985,1.49560118971728));
#294=CARTESIAN_POINT('',(-0.0632936609336759,-15.5,1.5));
#295=CARTESIAN_POINT('',(0.0632936609336757,-15.5,1.5));
#296=CARTESIAN_POINT('',(0.130483068610429,-15.5127477895985,1.49560118971728));
#297=CARTESIAN_POINT('',(0.253538905978702,-15.5639282569417,1.4797184776517));
#298=CARTESIAN_POINT('',(0.309442009572505,-15.602335228386,1.46843655507841));
#299=CARTESIAN_POINT('',(0.397685239999852,-15.6905784588133,1.44703442803149));
#300=CARTESIAN_POINT('',(0.436076453813176,-15.7464734100212,1.43546520638117));
#301=CARTESIAN_POINT('',(0.487245169634406,-15.8694990132682,1.41891339143563));
#302=CARTESIAN_POINT('',(0.5,-15.9366769697961,1.41421356237309));
#303=CARTESIAN_POINT('',(0.5,-16.0,1.41421356237309));
#304=CARTESIAN_POINT('',(-0.5,-16.0,1.0));
#305=CARTESIAN_POINT('',(-0.5,-16.0,1.25013062897775));
#306=VECTOR('',#351,1.0);
#307=AXIS2_PLACEMENT_3D('',#352,#353,#354);
#308=CARTESIAN_POINT('',(0.0,-16.0,1.5));
#309=AXIS2_PLACEMENT_3D('',#355,#356,#357);
#310=AXIS2_PLACEMENT_3D('',#358,#359,#360);
#311=AXIS2_PLACEMENT_3D('',#361,#362,#363);
#312=CARTESIAN_POINT('',(0.5,-16.0,1.41421356237309));
#313=CARTESIAN_POINT('',(0.5,-16.0633230302039,1.41421356237309));
#314=CARTESIAN_POINT('',(0.487245169634407,-16.1305009867318,1.41891339143563));
#315=CARTESIAN_POINT('',(0.436076453813178,-16.2535265899788,1.43546520638116));
#316=CARTESIAN_POINT('',(0.397685239999852,-16.3094215411867,1.44703442803149));
#317=CARTESIAN_POINT('',(0.309442009572505,-16.397664771614,1.46843655507841));
#318=CARTESIAN_POINT('',(0.253538905978703,-16.4360717430583,1.4797184776517));
#319=CARTESIAN_POINT('',(0.13048306861043,-16.4872522104015,1.49560118971728));
#320=CARTESIAN_POINT('',(0.0632936609336758,-16.5,1.5));
#321=CARTESIAN_POINT('',(-0.0632936609336758,-16.5,1.5));
#322=CARTESIAN_POINT('',(-0.130483068610429,-16.4872522104015,1.49560118971728));
#323=CARTESIAN_POINT('',(-0.253538905978702,-16.4360717430583,1.4797184776517));
#324=CARTESIAN_POINT('',(-0.309442009572505,-16.397664771614,1.46843655507841));
#325=CARTESIAN_POINT('',(-0.397685239999852,-16.3094215411867,1.44703442803149));
#326=CARTESIAN_POINT('',(-0.436076453813178,-16.2535265899788,1.43546520638116));
#327=CARTESIAN_POINT('',(-0.487245169634407,-16.1305009867318,1.41891339143563));
#328=CARTESIAN_POINT('',(-0.5,-16.0633230302039,1.41421356237309));
#329=CARTESIAN_POINT('',(-0.5,-16.0,1.41421356237309));
#330=AXIS2_PLACEMENT_3D('',#364,#365,#366);
#331=AXIS2_PLACEMENT_3D('',#367,#368,#369);
#332=AXIS2_PLACEMENT_3D('',#370,#371,#372);
#333=AXIS2_PLACEMENT_3D('',#373,#374,#375);
#334=DIRECTION('',(0.0,1.0,0.0));
#335=CARTESIAN_POINT('',(0.0,-22.0,0.0));
#336=DIRECTION('',(0.0,-1.0,0.0));
#337=DIRECTION('',(1.0,0.0,0.0));
#338=DIRECTION('',(0.0,-1.0,0.0));
#339=CARTESIAN_POINT('',(0.0,0.0,0.0));
#340=DIRECTION('',(0.0,1.0,0.0));
#341=DIRECTION('',(1.0,0.0,0.0));
#342=DIRECTION('',(0.0,1.0,0.0));
#343=CARTESIAN_POINT('',(0.0,-42.0,0.0));
#344=DIRECTION('',(0.0,-1.0,0.0));
#345=DIRECTION('',(1.0,0.0,0.0));
#346=DIRECTION('',(0.0,-1.0,0.0));
#347=CARTESIAN_POINT('',(0.0,-22.0,0.0));
#348=DIRECTION('',(0.0,1.0,0.0));
#349=DIRECTION('',(1.0,0.0,0.0));
#350=DIRECTION('',(0.0,0.0,-1.0));
#351=DIRECTION('',(0.0,0.0,1.0));
#352=CARTESIAN_POINT('',(0.0,-16.0,1.0));
#353=DIRECTION('',(0.0,0.0,-1.0));
#354=DIRECTION('',(1.0,0.0,0.0));
#355=CARTESIAN_POINT('',(0.0,-16.0,1.0));
#356=DIRECTION('',(0.0,-1.0,0.0));
#357=DIRECTION('',(0.0,0.0,1.0));
#358=CARTESIAN_POINT('',(0.0,-16.0,1.0));
#359=DIRECTION('',(0.0,-1.0,0.0));
#360=DIRECTION('',(0.0,0.0,1.0));
#361=CARTESIAN_POINT('',(0.0,-16.0,1.0));
#362=DIRECTION('',(0.0,0.0,-1.0));
#363=DIRECTION('',(1.0,0.0,0.0));
#364=CARTESIAN_POINT('',(0.0,-22.0,0.0));
#365=DIRECTION('',(0.0,1.0,0.0));
#366=DIRECTION('',(1.0,0.0,0.0));
#367=CARTESIAN_POINT('',(0.0,-42.0,0.0));
#368=DIRECTION('',(0.0,-1.0,0.0));
#369=DIRECTION('',(1.0,0.0,0.0));
#370=CARTESIAN_POINT('',(0.0,0.0,0.0));
#371=DIRECTION('',(0.0,1.0,0.0));
#372=DIRECTION('',(1.0,0.0,0.0));
#373=CARTESIAN_POINT('',(0.0,-22.0,0.0));
#374=DIRECTION('',(0.0,-1.0,0.0));
#375=DIRECTION('',(1.0,0.0,0.0));
ENDSEC;
END-ISO-10303-21;
