 PTC IGES file: D:\Tpo v2\SharedFS\Outgoing\dw-ad-623-065-122.igs       S      1
1H,,1H;,6HMODEL2,49HD:\Tpo v2\SharedFS\Outgoing\dw-ad-623-065-122.igs,  G      1
37H by Parametric Technology Corporation,7H2010230,32,38,7,38,15,       G      2
6HMODEL2,1.,2,2HMM,32768,0.5,15H20110223.091919,  0.001,10.0004,,       G      3
7HUnknown,10,0,15H20110223.091919;                                      G      4
     124       1       1       1       0       0       0       001000000D      1
     124       0       0       1       0                   XFORM       1D      2
     100       2       1       1       0       0       1       001010000D      3
     100       0       0       1       0                     ARC       1D      4
     124       3       1       1       0       0       0       001000000D      5
     124       0       0       1       0                   XFORM       2D      6
     100       4       1       1       0       0       5       001010000D      7
     100       0       0       1       0                     ARC       2D      8
     124       5       1       1       0       0       0       001000000D      9
     124       0       0       1       0                   XFORM       3D     10
     100       6       1       1       0       0       9       001010000D     11
     100       0       0       1       0                     ARC       3D     12
     124       7       1       1       0       0       0       001000000D     13
     124       0       0       1       0                   XFORM       4D     14
     100       8       1       1       0       0      13       001010000D     15
     100       0       0       1       0                     ARC       4D     16
     124       9       1       1       0       0       0       001000000D     17
     124       0       0       1       0                   XFORM       5D     18
     100      10       1       1       0       0      17       001010000D     19
     100       0       0       1       0                     ARC       5D     20
     124      11       1       1       0       0       0       001000000D     21
     124       0       0       1       0                   XFORM       6D     22
     100      12       1       1       0       0      21       001010000D     23
     100       0       0       1       0                     ARC       6D     24
     110      13       1       1       0       0       0       001010000D     25
     110       0       0       1       0                    LINE       1D     26
     110      14       1       1       0       0       0       001010000D     27
     110       0       0       1       0                    LINE       2D     28
     124      15       1       1       0       0       0       001000000D     29
     124       0       0       1       0                   XFORM       7D     30
     100      16       1       1       0       0      29       001010000D     31
     100       0       0       1       0                     ARC       7D     32
     124      17       1       1       0       0       0       001000000D     33
     124       0       0       1       0                   XFORM       8D     34
     100      18       1       1       0       0      33       001010000D     35
     100       0       0       1       0                     ARC       8D     36
     110      19       1       1       0       0       0       001010000D     37
     110       0       0       1       0                    LINE       3D     38
     110      20       1       1       0       0       0       001010000D     39
     110       0       0       1       0                    LINE       4D     40
     124      21       1       1       0       0       0       001000000D     41
     124       0       0       1       0                   XFORM       9D     42
     100      22       1       1       0       0      41       001010000D     43
     100       0       0       1       0                     ARC       9D     44
     124      23       1       1       0       0       0       001000000D     45
     124       0       0       1       0                   XFORM      10D     46
     100      24       1       1       0       0      45       001010000D     47
     100       0       0       1       0                     ARC      10D     48
     502      25       1       1       0       0       0       001010000D     49
     502       0       0       3       1                  VERTEX       1D     50
     504      28       1       1       0       0       0       000010001D     51
     504       0       0       3       1                    EDGE       1D     52
     114      31       1       1       0       0       0       001010000D     53
     114       0       0      14       0                  SPLSRF       1D     54
     508      45       1       1       0       0       0       001010000D     55
     508       0       0       1       1                EDGELOOP       1D     56
     508      46       1       1       0       0       0       001010000D     57
     508       0       0       1       1                EDGELOOP       2D     58
     508      47       1       1       0       0       0       001010000D     59
     508       0       0       1       1                EDGELOOP       3D     60
     510      48       1       1       0       0       0       000010000D     61
     510       0       0       1       1                    FACE       1D     62
     110      49       1       1       0       0       0       001010000D     63
     110       0       0       1       0                    LINE       5D     64
     110      50       1       1       0       0       0       001010000D     65
     110       0       0       1       0                    LINE       6D     66
     120      51       1       1       0       0       0       001010000D     67
     120       0       0       1       0                    SREV       1D     68
     508      52       1       1       0       0       0       001010000D     69
     508       0       0       1       1                EDGELOOP       4D     70
     510      53       1       1       0       0       0       000010000D     71
     510       0       0       1       1                    FACE       2D     72
     110      54       1       1       0       0       0       001010000D     73
     110       0       0       1       0                    LINE       7D     74
     110      55       1       1       0       0       0       001010000D     75
     110       0       0       1       0                    LINE       8D     76
     120      56       1       1       0       0       0       001010000D     77
     120       0       0       1       0                    SREV       2D     78
     508      57       1       1       0       0       0       001010000D     79
     508       0       0       1       1                EDGELOOP       5D     80
     510      58       1       1       0       0       0       000010000D     81
     510       0       0       1       1                    FACE       3D     82
     114      59       1       1       0       0       0       001010000D     83
     114       0       0      14       0                  SPLSRF       2D     84
     508      73       1       1       0       0       0       001010000D     85
     508       0       0       1       1                EDGELOOP       6D     86
     510      74       1       1       0       0       0       000010000D     87
     510       0       0       1       1                    FACE       4D     88
     110      75       1       1       0       0       0       001010000D     89
     110       0       0       1       0                    LINE       9D     90
     110      76       1       1       0       0       0       001010000D     91
     110       0       0       1       0                    LINE      10D     92
     120      77       1       1       0       0       0       001010000D     93
     120       0       0       1       0                    SREV       3D     94
     508      78       1       1       0       0       0       001010000D     95
     508       0       0       1       1                EDGELOOP       7D     96
     510      79       1       1       0       0       0       000010000D     97
     510       0       0       1       1                    FACE       5D     98
     110      80       1       1       0       0       0       001010000D     99
     110       0       0       1       0                    LINE      11D    100
     110      81       1       1       0       0       0       001010000D    101
     110       0       0       1       0                    LINE      12D    102
     120      82       1       1       0       0       0       001010000D    103
     120       0       0       1       0                    SREV       4D    104
     508      83       1       1       0       0       0       001010000D    105
     508       0       0       1       1                EDGELOOP       8D    106
     510      84       1       1       0       0       0       000010000D    107
     510       0       0       1       1                    FACE       6D    108
     114      85       1       1       0       0       0       001010000D    109
     114       0       0      14       0                  SPLSRF       3D    110
     508      99       1       1       0       0       0       001010000D    111
     508       0       0       1       1                EDGELOOP       9D    112
     510     100       1       1       0       0       0       000010000D    113
     510       0       0       1       1                    FACE       7D    114
     110     101       1       1       0       0       0       001010000D    115
     110       0       0       1       0                    LINE      13D    116
     124     102       1       1       0       0       0       001000000D    117
     124       0       0       1       0                   XFORM      11D    118
     100     103       1       1       0       0     117       001010000D    119
     100       0       0       1       0                     ARC      11D    120
     120     104       1       1       0       0       0       001010000D    121
     120       0       0       1       0                    SREV       5D    122
     508     105       1       1       0       0       0       001010000D    123
     508       0       0       1       1                EDGELOOP      10D    124
     510     106       1       1       0       0       0       000010000D    125
     510       0       0       1       1                    FACE       8D    126
     514     107       1       1       0       0       0       000010000D    127
     514       0       0       1       1                   SHELL       1D    128
     186     108       1       1       0       0       0       000000000D    129
     186       0       0       1       0                    MSBR       1D    130
124,1D0,0D0,0D0,0D0,0D0,0D0,1D0,-3D1,0D0,-1D0,0D0,0D0;                 1P      1
100,0D0,0D0,0D0,3.25D0,0D0,-3.25D0,0D0;                                3P      2
124,-1D0,0D0,0D0,0D0,0D0,0D0,1D0,-3D1,0D0,1D0,0D0,0D0;                 5P      3
100,0D0,0D0,0D0,3.25D0,0D0,-3.25D0,0D0;                                7P      4
124,1D0,0D0,0D0,0D0,0D0,0D0,1D0,-3D1,0D0,-1D0,0D0,0D0;                 9P      5
100,0D0,0D0,0D0,1.75D0,0D0,-1.75D0,0D0;                               11P      6
124,-1D0,0D0,0D0,0D0,0D0,0D0,1D0,-3D1,0D0,1D0,0D0,0D0;                13P      7
100,0D0,0D0,0D0,1.75D0,0D0,-1.75D0,0D0;                               15P      8
124,-1D0,0D0,0D0,0D0,0D0,0D0,1D0,-3D1,0D0,1D0,0D0,2.35D0;             17P      9
100,0D0,0D0,0D0,5D-1,0D0,-5D-1,0D0;                                   19P     10
124,-1D0,0D0,0D0,0D0,0D0,0D0,-1D0,-3D1,0D0,-1D0,0D0,2.35D0;           21P     11
100,0D0,0D0,0D0,5D-1,0D0,-5D-1,0D0;                                   23P     12
110,3.25D0,-3D1,0D0,3.25D0,0D0,0D0;                                   25P     13
110,-3.25D0,-3D1,0D0,-3.25D0,0D0,0D0;                                 27P     14
124,1D0,0D0,0D0,0D0,0D0,0D0,1D0,0D0,0D0,-1D0,0D0,0D0;                 29P     15
100,0D0,0D0,0D0,3.25D0,0D0,-3.25D0,0D0;                               31P     16
124,-1D0,0D0,0D0,0D0,0D0,0D0,1D0,0D0,0D0,1D0,0D0,0D0;                 33P     17
100,0D0,0D0,0D0,3.25D0,0D0,-3.25D0,0D0;                               35P     18
110,1.75D0,-5D1,0D0,1.75D0,-3D1,0D0;                                  37P     19
110,-1.75D0,-5D1,0D0,-1.75D0,-3D1,0D0;                                39P     20
124,1D0,0D0,0D0,0D0,0D0,0D0,1D0,-5D1,0D0,-1D0,0D0,0D0;                41P     21
100,0D0,0D0,0D0,1.75D0,0D0,-1.75D0,0D0;                               43P     22
124,-1D0,0D0,0D0,0D0,0D0,0D0,1D0,-5D1,0D0,1D0,0D0,0D0;                45P     23
100,0D0,0D0,0D0,1.75D0,0D0,-1.75D0,0D0;                               47P     24
502,10,3.25D0,-3D1,0D0,-3.25D0,-3D1,0D0,3.25D0,0D0,0D0,-3.25D0,       49P     25
0D0,0D0,1.75D0,-5D1,0D0,-1.75D0,-5D1,0D0,1.75D0,-3D1,0D0,             49P     26
-1.75D0,-3D1,0D0,-5D-1,-3D1,2.35D0,5D-1,-3D1,2.35D0;                  49P     27
504,14,3,49,1,49,2,7,49,2,49,1,31,49,3,49,4,35,49,4,49,3,25,49,       51P     28
1,49,3,27,49,2,49,4,43,49,5,49,6,47,49,6,49,5,11,49,7,49,8,15,        51P     29
49,8,49,7,37,49,5,49,7,39,49,6,49,8,19,49,9,49,10,23,49,9,49,10;      51P     30
114,3,1,1,1,-3.25D0,3.25D0,-3.252676792604D0,3.252676792604D0,        53P     31
-3.25D0,1D0,0D0,0D0,0D0,0D0,0D0,0D0,0D0,0D0,0D0,0D0,0D0,0D0,0D0,      53P     32
0D0,-3D1,0D0,0D0,0D0,0D0,0D0,0D0,0D0,0D0,0D0,0D0,0D0,0D0,0D0,         53P     33
0D0,0D0,3.252676792604D0,0D0,0D0,0D0,-1D0,0D0,0D0,0D0,0D0,0D0,        53P     34
0D0,0D0,0D0,0D0,0D0,0D0,0D0,0D0,0D0,0D0,0D0,0D0,0D0,0D0,0D0,0D0,      53P     35
0D0,0D0,0D0,0D0,0D0,0D0,0D0,0D0,0D0,0D0,0D0,0D0,0D0,0D0,0D0,0D0,      53P     36
0D0,0D0,0D0,0D0,0D0,0D0,0D0,0D0,0D0,0D0,0D0,0D0,0D0,0D0,0D0,0D0,      53P     37
0D0,0D0,0D0,0D0,0D0,0D0,0D0,0D0,0D0,0D0,0D0,0D0,0D0,0D0,0D0,0D0,      53P     38
0D0,0D0,0D0,0D0,0D0,0D0,0D0,0D0,0D0,0D0,0D0,0D0,0D0,0D0,0D0,0D0,      53P     39
0D0,0D0,0D0,0D0,0D0,0D0,0D0,0D0,0D0,0D0,0D0,0D0,0D0,0D0,0D0,0D0,      53P     40
0D0,0D0,0D0,0D0,0D0,0D0,0D0,0D0,0D0,0D0,0D0,0D0,0D0,0D0,0D0,0D0,      53P     41
0D0,0D0,0D0,0D0,0D0,0D0,0D0,0D0,0D0,0D0,0D0,0D0,0D0,0D0,0D0,0D0,      53P     42
0D0,0D0,0D0,0D0,0D0,0D0,0D0,0D0,0D0,0D0,0D0,0D0,0D0,0D0,0D0,0D0,      53P     43
0D0,0D0,0D0,0D0,0D0,0D0;                                              53P     44
508,2,0,51,1,1,0,0,51,2,1,0;                                          55P     45
508,2,0,51,9,0,0,0,51,10,0,0;                                         57P     46
508,2,0,51,13,0,0,0,51,14,1,0;                                        59P     47
510,53,3,0,55,57,59;                                                  61P     48
110,0D0,-3D1,0D0,0D0,-2.9D1,0D0;                                      63P     49
110,3.25D0,-3D1,0D0,3.25D0,0D0,0D0;                                   65P     50
120,63,65,0D0,3.141592653590D0;                                       67P     51
508,4,0,51,1,0,0,0,51,5,1,0,0,51,3,1,0,0,51,6,0,0;                    69P     52
510,67,1,0,69;                                                        71P     53
110,0D0,-3D1,0D0,0D0,-2.9D1,0D0;                                      73P     54
110,3.25D0,-3D1,0D0,3.25D0,0D0,0D0;                                   75P     55
120,73,75,3.141592653590D0,6.283185307180D0;                          77P     56
508,4,0,51,2,0,0,0,51,6,1,0,0,51,4,1,0,0,51,5,0,0;                    79P     57
510,77,1,0,79;                                                        81P     58
114,3,1,1,1,-3.25D0,3.25D0,-3.252676792604D0,3.252676792604D0,        83P     59
-3.25D0,1D0,0D0,0D0,0D0,0D0,0D0,0D0,0D0,0D0,0D0,0D0,0D0,0D0,0D0,      83P     60
0D0,0D0,0D0,0D0,0D0,0D0,0D0,0D0,0D0,0D0,0D0,0D0,0D0,0D0,0D0,0D0,      83P     61
0D0,3.252676792604D0,0D0,0D0,0D0,-1D0,0D0,0D0,0D0,0D0,0D0,0D0,        83P     62
0D0,0D0,0D0,0D0,0D0,0D0,0D0,0D0,0D0,0D0,0D0,0D0,0D0,0D0,0D0,0D0,      83P     63
0D0,0D0,0D0,0D0,0D0,0D0,0D0,0D0,0D0,0D0,0D0,0D0,0D0,0D0,0D0,0D0,      83P     64
0D0,0D0,0D0,0D0,0D0,0D0,0D0,0D0,0D0,0D0,0D0,0D0,0D0,0D0,0D0,0D0,      83P     65
0D0,0D0,0D0,0D0,0D0,0D0,0D0,0D0,0D0,0D0,0D0,0D0,0D0,0D0,0D0,0D0,      83P     66
0D0,0D0,0D0,0D0,0D0,0D0,0D0,0D0,0D0,0D0,0D0,0D0,0D0,0D0,0D0,0D0,      83P     67
0D0,0D0,0D0,0D0,0D0,0D0,0D0,0D0,0D0,0D0,0D0,0D0,0D0,0D0,0D0,0D0,      83P     68
0D0,0D0,0D0,0D0,0D0,0D0,0D0,0D0,0D0,0D0,0D0,0D0,0D0,0D0,0D0,0D0,      83P     69
0D0,0D0,0D0,0D0,0D0,0D0,0D0,0D0,0D0,0D0,0D0,0D0,0D0,0D0,0D0,0D0,      83P     70
0D0,0D0,0D0,0D0,0D0,0D0,0D0,0D0,0D0,0D0,0D0,0D0,0D0,0D0,0D0,0D0,      83P     71
0D0,0D0,0D0,0D0,0D0;                                                  83P     72
508,2,0,51,3,0,0,0,51,4,0,0;                                          85P     73
510,83,1,0,85;                                                        87P     74
110,0D0,-5D1,0D0,0D0,-4.9D1,0D0;                                      89P     75
110,1.75D0,-5D1,0D0,1.75D0,-3D1,0D0;                                  91P     76
120,89,91,0D0,3.141592653590D0;                                       93P     77
508,4,0,51,9,1,0,0,51,12,0,0,0,51,7,0,0,0,51,11,1,0;                  95P     78
510,93,1,0,95;                                                        97P     79
110,0D0,-5D1,0D0,0D0,-4.9D1,0D0;                                      99P     80
110,1.75D0,-5D1,0D0,1.75D0,-3D1,0D0;                                 101P     81
120,99,101,3.141592653590D0,6.283185307180D0;                        103P     82
508,4,0,51,10,1,0,0,51,11,0,0,0,51,8,0,0,0,51,12,1,0;                105P     83
510,103,1,0,105;                                                     107P     84
114,3,1,1,1,-1.75D0,1.75D0,-1.750762621456D0,1.750762621456D0,       109P     85
-1.75D0,1D0,0D0,0D0,0D0,0D0,0D0,0D0,0D0,0D0,0D0,0D0,0D0,0D0,0D0,     109P     86
0D0,-5D1,0D0,0D0,0D0,0D0,0D0,0D0,0D0,0D0,0D0,0D0,0D0,0D0,0D0,        109P     87
0D0,0D0,1.750762621456D0,0D0,0D0,0D0,-1D0,0D0,0D0,0D0,0D0,0D0,       109P     88
0D0,0D0,0D0,0D0,0D0,0D0,0D0,0D0,0D0,0D0,0D0,0D0,0D0,0D0,0D0,0D0,     109P     89
0D0,0D0,0D0,0D0,0D0,0D0,0D0,0D0,0D0,0D0,0D0,0D0,0D0,0D0,0D0,0D0,     109P     90
0D0,0D0,0D0,0D0,0D0,0D0,0D0,0D0,0D0,0D0,0D0,0D0,0D0,0D0,0D0,0D0,     109P     91
0D0,0D0,0D0,0D0,0D0,0D0,0D0,0D0,0D0,0D0,0D0,0D0,0D0,0D0,0D0,0D0,     109P     92
0D0,0D0,0D0,0D0,0D0,0D0,0D0,0D0,0D0,0D0,0D0,0D0,0D0,0D0,0D0,0D0,     109P     93
0D0,0D0,0D0,0D0,0D0,0D0,0D0,0D0,0D0,0D0,0D0,0D0,0D0,0D0,0D0,0D0,     109P     94
0D0,0D0,0D0,0D0,0D0,0D0,0D0,0D0,0D0,0D0,0D0,0D0,0D0,0D0,0D0,0D0,     109P     95
0D0,0D0,0D0,0D0,0D0,0D0,0D0,0D0,0D0,0D0,0D0,0D0,0D0,0D0,0D0,0D0,     109P     96
0D0,0D0,0D0,0D0,0D0,0D0,0D0,0D0,0D0,0D0,0D0,0D0,0D0,0D0,0D0,0D0,     109P     97
0D0,0D0,0D0,0D0,0D0,0D0;                                             109P     98
508,2,0,51,7,1,0,0,51,8,1,0;                                         111P     99
510,109,1,0,111;                                                     113P    100
110,0D0,-3D1,2.35D0,1D0,-3D1,2.35D0;                                 115P    101
124,-1D0,0D0,0D0,0D0,0D0,-1D0,0D0,-3D1,0D0,0D0,1D0,2.35D0;           117P    102
100,0D0,0D0,0D0,5D-1,0D0,-5D-1,0D0;                                  119P    103
120,115,119,-1.570796326795D0,1.570796326795D0;                      121P    104
508,2,0,51,13,1,0,0,51,14,0,0;                                       123P    105
510,121,1,0,123;                                                     125P    106
514,8,61,0,71,1,81,1,87,1,97,1,107,1,113,0,125,1;                    127P    107
186,127,1,0;                                                         129P    108
S      1G      4D    130P    108                                        T      1
