ISO-10303-21;
HEADER;
FILE_DESCRIPTION(('STEP AP203'),'1');
FILE_NAME(' ','  ',('TraceParts'),('TraceParts S.A.'),'XStep 1.0',' ',' ');
FILE_SCHEMA(('CONFIG_CONTROL_DESIGN'));
ENDSEC;
DATA;
#1=DESIGN_CONTEXT('',#27,'design');
#2=APPLICATION_PROTOCOL_DEFINITION('INTERNATIONAL STANDARD','config_control_design',1994,#27);
#3=PRODUCT_CATEGORY_RELATIONSHIP('NONE','NONE',#28,#29);
#4=DATE_AND_TIME(#30,#31);
#5=DATE_TIME_ROLE('creation_date');
#6=DATE_TIME_ROLE('classification_date');
#7=PERSON_AND_ORGANIZATION_ROLE('creator');
#8=PERSON_AND_ORGANIZATION_ROLE('design_supplier');
#9=PERSON_AND_ORGANIZATION_ROLE('classification_officer');
#10=PERSON_AND_ORGANIZATION_ROLE('design_owner');
#11=APPROVAL_PERSON_ORGANIZATION(#32,#33,#34);
#12=APPROVAL_DATE_TIME(#4,#33);
#13=CC_DESIGN_APPROVAL(#33,(#35,#36,#37));
#14=CC_DESIGN_DATE_AND_TIME_ASSIGNMENT(#4,#5,(#37));
#15=CC_DESIGN_DATE_AND_TIME_ASSIGNMENT(#4,#6,(#35));
#16=CC_DESIGN_PERSON_AND_ORGANIZATION_ASSIGNMENT(#32,#10,(#38));
#17=CC_DESIGN_PERSON_AND_ORGANIZATION_ASSIGNMENT(#32,#7,(#37));
#18=CC_DESIGN_PERSON_AND_ORGANIZATION_ASSIGNMENT(#32,#7,(#36));
#19=CC_DESIGN_PERSON_AND_ORGANIZATION_ASSIGNMENT(#32,#8,(#36));
#20=CC_DESIGN_SECURITY_CLASSIFICATION(#35,(#36));
#21=CC_DESIGN_PERSON_AND_ORGANIZATION_ASSIGNMENT(#32,#9,(#35));
#22=SHAPE_DEFINITION_REPRESENTATION(#39,#40);
#23= (GEOMETRIC_REPRESENTATION_CONTEXT(3)GLOBAL_UNCERTAINTY_ASSIGNED_CONTEXT((#43))GLOBAL_UNIT_ASSIGNED_CONTEXT((#45,#46,#47))REPRESENTATION_CONTEXT('NONE','WORKSPACE'));
#27=APPLICATION_CONTEXT('CONFIGURATION CONTROLLED 3D DESIGNS OF MECHANICAL PARTS AND ASSEMBLIES');
#28=PRODUCT_CATEGORY('part','NONE');
#29=PRODUCT_RELATED_PRODUCT_CATEGORY('detail',' ',(#38));
#30=CALENDAR_DATE(2011,23,1);
#31=LOCAL_TIME(9,21,9.0,#49);
#32=PERSON_AND_ORGANIZATION(#50,#51);
#33=APPROVAL(#52,'SOLID MODEL');
#34=APPROVAL_ROLE('APPROVED');
#35=SECURITY_CLASSIFICATION('','',#53);
#36=PRODUCT_DEFINITION_FORMATION_WITH_SPECIFIED_SOURCE(' ','NONE',#38,.NOT_KNOWN.);
#37=PRODUCT_DEFINITION('NONE','NONE',#36,#1);
#38=PRODUCT('1','1','PART-1-DESC',(#54));
#39=PRODUCT_DEFINITION_SHAPE('NONE','NONE',#37);
#40=ADVANCED_BREP_SHAPE_REPRESENTATION('1',(#55,#56),#23);
#43=UNCERTAINTY_MEASURE_WITH_UNIT(LENGTH_MEASURE(1.0E-006),#45,'','');
#45= (CONVERSION_BASED_UNIT('MILLIMETRE',#59)LENGTH_UNIT()NAMED_UNIT(#62));
#46= (NAMED_UNIT(#64)PLANE_ANGLE_UNIT()SI_UNIT($,.RADIAN.));
#47= (NAMED_UNIT(#64)SOLID_ANGLE_UNIT()SI_UNIT($,.STERADIAN.));
#49=COORDINATED_UNIVERSAL_TIME_OFFSET(1,0,.AHEAD.);
#50=PERSON('','UNSPECIFIED',$,$,$,$);
#51=ORGANIZATION('UNSPECIFIED','UNSPECIFIED','UNSPECIFIED');
#52=APPROVAL_STATUS('approved');
#53=SECURITY_CLASSIFICATION_LEVEL('unclassified');
#54=MECHANICAL_CONTEXT('',#27,'mechanical');
#55=MANIFOLD_SOLID_BREP('1',#70);
#56=AXIS2_PLACEMENT_3D('',#71,#72,#73);
#59=LENGTH_MEASURE_WITH_UNIT(LENGTH_MEASURE(1.0),#74);
#62=DIMENSIONAL_EXPONENTS(1.0,0.0,0.0,0.0,0.0,0.0,0.0);
#64=DIMENSIONAL_EXPONENTS(0.0,0.0,0.0,0.0,0.0,0.0,0.0);
#70=CLOSED_SHELL('',(#75,#76,#77,#78,#79,#80,#81,#82));
#71=CARTESIAN_POINT('',(0.0,0.0,0.0));
#72=DIRECTION('',(0.0,0.0,1.0));
#73=DIRECTION('',(1.0,0.0,0.0));
#74= (NAMED_UNIT(#62)LENGTH_UNIT()SI_UNIT(.MILLI.,.METRE.));
#75=ADVANCED_FACE('',(#84),#85,.T.);
#76=ADVANCED_FACE('',(#86),#87,.T.);
#77=ADVANCED_FACE('',(#88),#89,.T.);
#78=ADVANCED_FACE('',(#90),#91,.T.);
#79=ADVANCED_FACE('',(#92),#93,.T.);
#80=ADVANCED_FACE('',(#94),#95,.T.);
#81=ADVANCED_FACE('',(#96,#97,#98),#99,.T.);
#82=ADVANCED_FACE('',(#100),#101,.T.);
#84=FACE_OUTER_BOUND('',#102,.T.);
#85=CYLINDRICAL_SURFACE('',#103,3.25);
#86=FACE_OUTER_BOUND('',#104,.T.);
#87=CYLINDRICAL_SURFACE('',#105,1.75);
#88=FACE_OUTER_BOUND('',#106,.T.);
#89=SPHERICAL_SURFACE('',#107,0.5);
#90=FACE_OUTER_BOUND('',#108,.T.);
#91=CYLINDRICAL_SURFACE('',#109,1.75);
#92=FACE_OUTER_BOUND('',#110,.T.);
#93=PLANE('',#111);
#94=FACE_OUTER_BOUND('',#112,.T.);
#95=CYLINDRICAL_SURFACE('',#113,3.25);
#96=FACE_BOUND('',#114,.T.);
#97=FACE_BOUND('',#115,.T.);
#98=FACE_OUTER_BOUND('',#116,.T.);
#99=PLANE('',#117);
#100=FACE_OUTER_BOUND('',#118,.T.);
#101=PLANE('',#119);
#102=EDGE_LOOP('',(#120,#121,#122,#123));
#103=AXIS2_PLACEMENT_3D('',#124,#125,#126);
#104=EDGE_LOOP('',(#127,#128,#129,#130));
#105=AXIS2_PLACEMENT_3D('',#131,#132,#133);
#106=EDGE_LOOP('',(#134,#135));
#107=AXIS2_PLACEMENT_3D('',#136,#137,#138);
#108=EDGE_LOOP('',(#139,#140,#141,#142));
#109=AXIS2_PLACEMENT_3D('',#143,#144,#145);
#110=EDGE_LOOP('',(#146,#147));
#111=AXIS2_PLACEMENT_3D('',#148,#149,#150);
#112=EDGE_LOOP('',(#151,#152,#153,#154));
#113=AXIS2_PLACEMENT_3D('',#155,#156,#157);
#114=EDGE_LOOP('',(#158,#159));
#115=EDGE_LOOP('',(#160,#161));
#116=EDGE_LOOP('',(#162,#163));
#117=AXIS2_PLACEMENT_3D('',#164,#165,#166);
#118=EDGE_LOOP('',(#167,#168));
#119=AXIS2_PLACEMENT_3D('',#169,#170,#171);
#120=ORIENTED_EDGE('',*,*,#172,.F.);
#121=ORIENTED_EDGE('',*,*,#173,.F.);
#122=ORIENTED_EDGE('',*,*,#174,.F.);
#123=ORIENTED_EDGE('',*,*,#175,.F.);
#124=CARTESIAN_POINT('',(0.0,-15.0,0.0));
#125=DIRECTION('',(0.0,-1.0,0.0));
#126=DIRECTION('',(1.0,0.0,0.0));
#127=ORIENTED_EDGE('',*,*,#176,.F.);
#128=ORIENTED_EDGE('',*,*,#177,.F.);
#129=ORIENTED_EDGE('',*,*,#178,.F.);
#130=ORIENTED_EDGE('',*,*,#179,.F.);
#131=CARTESIAN_POINT('',(0.0,-40.0,0.0));
#132=DIRECTION('',(0.0,-1.0,0.0));
#133=DIRECTION('',(1.0,0.0,0.0));
#134=ORIENTED_EDGE('',*,*,#180,.F.);
#135=ORIENTED_EDGE('',*,*,#181,.F.);
#136=CARTESIAN_POINT('',(0.0,-30.0,2.35));
#137=DIRECTION('',(0.0,0.0,1.0));
#138=DIRECTION('',(1.0,0.0,0.0));
#139=ORIENTED_EDGE('',*,*,#176,.T.);
#140=ORIENTED_EDGE('',*,*,#182,.F.);
#141=ORIENTED_EDGE('',*,*,#178,.T.);
#142=ORIENTED_EDGE('',*,*,#183,.F.);
#143=CARTESIAN_POINT('',(0.0,-40.0,0.0));
#144=DIRECTION('',(0.0,-1.0,0.0));
#145=DIRECTION('',(1.0,0.0,0.0));
#146=ORIENTED_EDGE('',*,*,#183,.T.);
#147=ORIENTED_EDGE('',*,*,#177,.T.);
#148=CARTESIAN_POINT('',(0.0,-50.0,0.0));
#149=DIRECTION('',(0.0,-1.0,0.0));
#150=DIRECTION('',(-1.0,0.0,0.0));
#151=ORIENTED_EDGE('',*,*,#172,.T.);
#152=ORIENTED_EDGE('',*,*,#184,.F.);
#153=ORIENTED_EDGE('',*,*,#174,.T.);
#154=ORIENTED_EDGE('',*,*,#185,.F.);
#155=CARTESIAN_POINT('',(0.0,-15.0,0.0));
#156=DIRECTION('',(0.0,-1.0,0.0));
#157=DIRECTION('',(1.0,0.0,0.0));
#158=ORIENTED_EDGE('',*,*,#180,.T.);
#159=ORIENTED_EDGE('',*,*,#181,.T.);
#160=ORIENTED_EDGE('',*,*,#179,.T.);
#161=ORIENTED_EDGE('',*,*,#182,.T.);
#162=ORIENTED_EDGE('',*,*,#185,.T.);
#163=ORIENTED_EDGE('',*,*,#173,.T.);
#164=CARTESIAN_POINT('',(0.0,-30.0,0.0));
#165=DIRECTION('',(0.0,-1.0,0.0));
#166=DIRECTION('',(-1.0,0.0,0.0));
#167=ORIENTED_EDGE('',*,*,#175,.T.);
#168=ORIENTED_EDGE('',*,*,#184,.T.);
#169=CARTESIAN_POINT('',(0.0,0.0,0.0));
#170=DIRECTION('',(0.0,1.0,0.0));
#171=DIRECTION('',(1.0,0.0,0.0));
#172=EDGE_CURVE('',#186,#187,#188,.T.);
#173=EDGE_CURVE('',#189,#186,#190,.T.);
#174=EDGE_CURVE('',#191,#189,#192,.T.);
#175=EDGE_CURVE('',#187,#191,#193,.T.);
#176=EDGE_CURVE('',#194,#195,#196,.T.);
#177=EDGE_CURVE('',#197,#194,#198,.T.);
#178=EDGE_CURVE('',#199,#197,#200,.T.);
#179=EDGE_CURVE('',#195,#199,#201,.T.);
#180=EDGE_CURVE('',#202,#203,#204,.T.);
#181=EDGE_CURVE('',#203,#202,#205,.T.);
#182=EDGE_CURVE('',#199,#195,#206,.T.);
#183=EDGE_CURVE('',#194,#197,#207,.T.);
#184=EDGE_CURVE('',#191,#187,#208,.T.);
#185=EDGE_CURVE('',#186,#189,#209,.T.);
#186=VERTEX_POINT('',#210);
#187=VERTEX_POINT('',#211);
#188=LINE('',#212,#213);
#189=VERTEX_POINT('',#214);
#190=CIRCLE('',#215,3.25);
#191=VERTEX_POINT('',#216);
#192=LINE('',#217,#218);
#193=CIRCLE('',#219,3.25);
#194=VERTEX_POINT('',#220);
#195=VERTEX_POINT('',#221);
#196=LINE('',#222,#223);
#197=VERTEX_POINT('',#224);
#198=CIRCLE('',#225,1.75);
#199=VERTEX_POINT('',#226);
#200=LINE('',#227,#228);
#201=CIRCLE('',#229,1.75);
#202=VERTEX_POINT('',#230);
#203=VERTEX_POINT('',#231);
#204=CIRCLE('',#232,0.5);
#205=CIRCLE('',#233,0.5);
#206=CIRCLE('',#234,1.75);
#207=CIRCLE('',#235,1.75);
#208=CIRCLE('',#236,3.25);
#209=CIRCLE('',#237,3.25);
#210=CARTESIAN_POINT('',(3.25,-30.0,0.0));
#211=CARTESIAN_POINT('',(3.25,0.0,0.0));
#212=CARTESIAN_POINT('',(3.25,-15.0,3.97997064992273E-016));
#213=VECTOR('',#238,1.0);
#214=CARTESIAN_POINT('',(-3.25,-30.0,-3.97997064992273E-016));
#215=AXIS2_PLACEMENT_3D('',#239,#240,#241);
#216=CARTESIAN_POINT('',(-3.25,0.0,-3.97997064992273E-016));
#217=CARTESIAN_POINT('',(-3.25,-15.0,-3.97997064992273E-016));
#218=VECTOR('',#242,1.0);
#219=AXIS2_PLACEMENT_3D('',#243,#244,#245);
#220=CARTESIAN_POINT('',(1.75,-50.0,0.0));
#221=CARTESIAN_POINT('',(1.75,-30.0,0.0));
#222=CARTESIAN_POINT('',(1.75,-40.0,2.14306111918916E-016));
#223=VECTOR('',#246,1.0);
#224=CARTESIAN_POINT('',(-1.75,-50.0,-2.14306111918916E-016));
#225=AXIS2_PLACEMENT_3D('',#247,#248,#249);
#226=CARTESIAN_POINT('',(-1.75,-30.0,-2.14306111918916E-016));
#227=CARTESIAN_POINT('',(-1.75,-40.0,-2.14306111918916E-016));
#228=VECTOR('',#250,1.0);
#229=AXIS2_PLACEMENT_3D('',#251,#252,#253);
#230=CARTESIAN_POINT('',(-6.12303176911189E-017,-30.0,1.85));
#231=CARTESIAN_POINT('',(0.0,-30.0,2.85));
#232=AXIS2_PLACEMENT_3D('',#254,#255,#256);
#233=AXIS2_PLACEMENT_3D('',#257,#258,#259);
#234=AXIS2_PLACEMENT_3D('',#260,#261,#262);
#235=AXIS2_PLACEMENT_3D('',#263,#264,#265);
#236=AXIS2_PLACEMENT_3D('',#266,#267,#268);
#237=AXIS2_PLACEMENT_3D('',#269,#270,#271);
#238=DIRECTION('',(0.0,1.0,0.0));
#239=CARTESIAN_POINT('',(0.0,-30.0,0.0));
#240=DIRECTION('',(0.0,-1.0,0.0));
#241=DIRECTION('',(1.0,0.0,0.0));
#242=DIRECTION('',(0.0,-1.0,0.0));
#243=CARTESIAN_POINT('',(0.0,0.0,0.0));
#244=DIRECTION('',(0.0,1.0,0.0));
#245=DIRECTION('',(1.0,0.0,0.0));
#246=DIRECTION('',(0.0,1.0,0.0));
#247=CARTESIAN_POINT('',(0.0,-50.0,0.0));
#248=DIRECTION('',(0.0,-1.0,0.0));
#249=DIRECTION('',(1.0,0.0,0.0));
#250=DIRECTION('',(0.0,-1.0,0.0));
#251=CARTESIAN_POINT('',(0.0,-30.0,0.0));
#252=DIRECTION('',(0.0,1.0,0.0));
#253=DIRECTION('',(1.0,0.0,0.0));
#254=CARTESIAN_POINT('',(0.0,-30.0,2.35));
#255=DIRECTION('',(0.0,1.0,0.0));
#256=DIRECTION('',(0.0,0.0,1.0));
#257=CARTESIAN_POINT('',(0.0,-30.0,2.35));
#258=DIRECTION('',(0.0,1.0,0.0));
#259=DIRECTION('',(0.0,0.0,1.0));
#260=CARTESIAN_POINT('',(0.0,-30.0,0.0));
#261=DIRECTION('',(0.0,1.0,0.0));
#262=DIRECTION('',(1.0,0.0,0.0));
#263=CARTESIAN_POINT('',(0.0,-50.0,0.0));
#264=DIRECTION('',(0.0,-1.0,0.0));
#265=DIRECTION('',(1.0,0.0,0.0));
#266=CARTESIAN_POINT('',(0.0,0.0,0.0));
#267=DIRECTION('',(0.0,1.0,0.0));
#268=DIRECTION('',(1.0,0.0,0.0));
#269=CARTESIAN_POINT('',(0.0,-30.0,0.0));
#270=DIRECTION('',(0.0,-1.0,0.0));
#271=DIRECTION('',(1.0,0.0,0.0));
ENDSEC;
END-ISO-10303-21;
