ISO-10303-21;
HEADER;
FILE_DESCRIPTION(('FreeCAD Model'),'2;1');
FILE_NAME(
'/Volumes/Werbeabteilung/shl/Artikel/Umstellung Pulso/CAD - DCC 6.5 V 
1.5 Pxxx/DCC_65_V_15_xxLK_22.step','2016-11-14T09:24:34',('FreeCAD'),(
    'FreeCAD'),'Open CASCADE STEP processor 6.7','FreeCAD','Unknown');
FILE_SCHEMA(('AUTOMOTIVE_DESIGN_CC2 { 1 2 10303 214 -1 1 5 4 }'));
ENDSEC;
DATA;
#1 = APPLICATION_PROTOCOL_DEFINITION('committee draft',
  'automotive_design',1997,#2);
#2 = APPLICATION_CONTEXT(
  'core data for automotive mechanical design processes');
#3 = SHAPE_DEFINITION_REPRESENTATION(#4,#10);
#4 = PRODUCT_DEFINITION_SHAPE('','',#5);
#5 = PRODUCT_DEFINITION('design','',#6,#9);
#6 = PRODUCT_DEFINITION_FORMATION('','',#7);
#7 = PRODUCT('DCC_6.5_V_1.5_xxLK/22','DCC_6.5_V_1.5_xxLK/22','',(#8));
#8 = MECHANICAL_CONTEXT('',#2,'mechanical');
#9 = PRODUCT_DEFINITION_CONTEXT('part definition',#2,'design');
#10 = ADVANCED_BREP_SHAPE_REPRESENTATION('',(#11,#15),#277);
#11 = AXIS2_PLACEMENT_3D('',#12,#13,#14);
#12 = CARTESIAN_POINT('',(0.,0.,0.));
#13 = DIRECTION('',(0.,0.,1.));
#14 = DIRECTION('',(1.,0.,-0.));
#15 = MANIFOLD_SOLID_BREP('',#16);
#16 = CLOSED_SHELL('',(#17,#106,#159,#216,#220,#273));
#17 = ADVANCED_FACE('',(#18,#76),#33,.T.);
#18 = FACE_BOUND('',#19,.T.);
#19 = EDGE_LOOP('',(#20,#55));
#20 = ORIENTED_EDGE('',*,*,#21,.T.);
#21 = EDGE_CURVE('',#22,#24,#26,.T.);
#22 = VERTEX_POINT('',#23);
#23 = CARTESIAN_POINT('',(21.5,3.25,0.));
#24 = VERTEX_POINT('',#25);
#25 = CARTESIAN_POINT('',(21.5,-1.680384191928,2.781871486521));
#26 = SURFACE_CURVE('',#27,(#32,#44),.PCURVE_S1.);
#27 = CIRCLE('',#28,3.25);
#28 = AXIS2_PLACEMENT_3D('',#29,#30,#31);
#29 = CARTESIAN_POINT('',(21.5,0.,0.));
#30 = DIRECTION('',(1.,0.,0.));
#31 = DIRECTION('',(0.,1.,0.));
#32 = PCURVE('',#33,#38);
#33 = PLANE('',#34);
#34 = AXIS2_PLACEMENT_3D('',#35,#36,#37);
#35 = CARTESIAN_POINT('',(21.5,3.0875,0.));
#36 = DIRECTION('',(1.,0.,0.));
#37 = DIRECTION('',(0.,0.,-1.));
#38 = DEFINITIONAL_REPRESENTATION('',(#39),#43);
#39 = CIRCLE('',#40,3.25);
#40 = AXIS2_PLACEMENT_2D('',#41,#42);
#41 = CARTESIAN_POINT('',(0.,-3.0875));
#42 = DIRECTION('',(0.,1.));
#43 = ( GEOMETRIC_REPRESENTATION_CONTEXT(2) 
PARAMETRIC_REPRESENTATION_CONTEXT() REPRESENTATION_CONTEXT('2D SPACE',''
  ) );
#44 = PCURVE('',#45,#50);
#45 = CYLINDRICAL_SURFACE('',#46,3.25);
#46 = AXIS2_PLACEMENT_3D('',#47,#48,#49);
#47 = CARTESIAN_POINT('',(-2.5E-02,1.203377584746E-17,5.685387878263E-17
    ));
#48 = DIRECTION('',(-1.,-4.375918489986E-17,-2.067413773914E-16));
#49 = DIRECTION('',(-1.543371385513E-16,-0.517041289824,0.855960457391)
  );
#50 = DEFINITIONAL_REPRESENTATION('',(#51),#54);
#51 = B_SPLINE_CURVE_WITH_KNOTS('',1,(#52,#53),.UNSPECIFIED.,.F.,.F.,(2,
    2),(0.,6.28318530718),.PIECEWISE_BEZIER_KNOTS.);
#52 = CARTESIAN_POINT('',(2.114187057621,-21.525));
#53 = CARTESIAN_POINT('',(-4.168998249559,-21.525));
#54 = ( GEOMETRIC_REPRESENTATION_CONTEXT(2) 
PARAMETRIC_REPRESENTATION_CONTEXT() REPRESENTATION_CONTEXT('2D SPACE',''
  ) );
#55 = ORIENTED_EDGE('',*,*,#56,.T.);
#56 = EDGE_CURVE('',#24,#22,#57,.T.);
#57 = SURFACE_CURVE('',#58,(#63,#70),.PCURVE_S1.);
#58 = CIRCLE('',#59,3.25);
#59 = AXIS2_PLACEMENT_3D('',#60,#61,#62);
#60 = CARTESIAN_POINT('',(21.5,0.,0.));
#61 = DIRECTION('',(1.,0.,0.));
#62 = DIRECTION('',(0.,1.,0.));
#63 = PCURVE('',#33,#64);
#64 = DEFINITIONAL_REPRESENTATION('',(#65),#69);
#65 = CIRCLE('',#66,3.25);
#66 = AXIS2_PLACEMENT_2D('',#67,#68);
#67 = CARTESIAN_POINT('',(0.,-3.0875));
#68 = DIRECTION('',(0.,1.));
#69 = ( GEOMETRIC_REPRESENTATION_CONTEXT(2) 
PARAMETRIC_REPRESENTATION_CONTEXT() REPRESENTATION_CONTEXT('2D SPACE',''
  ) );
#70 = PCURVE('',#45,#71);
#71 = DEFINITIONAL_REPRESENTATION('',(#72),#75);
#72 = B_SPLINE_CURVE_WITH_KNOTS('',1,(#73,#74),.UNSPECIFIED.,.F.,.F.,(2,
    2),(0.,6.28318530718),.PIECEWISE_BEZIER_KNOTS.);
#73 = CARTESIAN_POINT('',(8.397372364801,-21.525));
#74 = CARTESIAN_POINT('',(2.114187057621,-21.525));
#75 = ( GEOMETRIC_REPRESENTATION_CONTEXT(2) 
PARAMETRIC_REPRESENTATION_CONTEXT() REPRESENTATION_CONTEXT('2D SPACE',''
  ) );
#76 = FACE_BOUND('',#77,.T.);
#77 = EDGE_LOOP('',(#78));
#78 = ORIENTED_EDGE('',*,*,#79,.F.);
#79 = EDGE_CURVE('',#80,#80,#82,.T.);
#80 = VERTEX_POINT('',#81);
#81 = CARTESIAN_POINT('',(21.5,-1.549987860092,-6.134620495294E-03));
#82 = SURFACE_CURVE('',#83,(#88,#95),.PCURVE_S1.);
#83 = CIRCLE('',#84,1.55);
#84 = AXIS2_PLACEMENT_3D('',#85,#86,#87);
#85 = CARTESIAN_POINT('',(21.5,7.428325919542E-15,-4.884514629829E-17));
#86 = DIRECTION('',(1.,0.,-0.));
#87 = DIRECTION('',(0.,0.999992167801,3.957819674383E-03));
#88 = PCURVE('',#33,#89);
#89 = DEFINITIONAL_REPRESENTATION('',(#90),#94);
#90 = CIRCLE('',#91,1.55);
#91 = AXIS2_PLACEMENT_2D('',#92,#93);
#92 = CARTESIAN_POINT('',(4.884514629829E-17,-3.0875));
#93 = DIRECTION('',(-3.957819674383E-03,0.999992167801));
#94 = ( GEOMETRIC_REPRESENTATION_CONTEXT(2) 
PARAMETRIC_REPRESENTATION_CONTEXT() REPRESENTATION_CONTEXT('2D SPACE',''
  ) );
#95 = PCURVE('',#96,#101);
#96 = CYLINDRICAL_SURFACE('',#97,1.55);
#97 = AXIS2_PLACEMENT_3D('',#98,#99,#100);
#98 = CARTESIAN_POINT('',(0.,9.535018884397E-17,-4.884514629829E-17));
#99 = DIRECTION('',(1.,3.410686386371E-16,-1.893189135333E-31));
#100 = DIRECTION('',(-3.410659673197E-16,0.999992167801,
    3.957819674383E-03));
#101 = DEFINITIONAL_REPRESENTATION('',(#102),#105);
#102 = B_SPLINE_CURVE_WITH_KNOTS('',1,(#103,#104),.UNSPECIFIED.,.F.,.F.,
  (2,2),(3.14159265359,9.424777960769),.PIECEWISE_BEZIER_KNOTS.);
#103 = CARTESIAN_POINT('',(3.14159265359,21.5));
#104 = CARTESIAN_POINT('',(9.424777960769,21.5));
#105 = ( GEOMETRIC_REPRESENTATION_CONTEXT(2) 
PARAMETRIC_REPRESENTATION_CONTEXT() REPRESENTATION_CONTEXT('2D SPACE',''
  ) );
#106 = ADVANCED_FACE('',(#107),#45,.T.);
#107 = FACE_BOUND('',#108,.T.);
#108 = EDGE_LOOP('',(#109,#110,#132,#157,#158));
#109 = ORIENTED_EDGE('',*,*,#56,.F.);
#110 = ORIENTED_EDGE('',*,*,#111,.T.);
#111 = EDGE_CURVE('',#24,#112,#114,.T.);
#112 = VERTEX_POINT('',#113);
#113 = CARTESIAN_POINT('',(-5.E-02,-1.680384191928,2.781871486521));
#114 = SEAM_CURVE('',#115,(#118,#125),.PCURVE_S1.);
#115 = B_SPLINE_CURVE_WITH_KNOTS('',1,(#116,#117),.UNSPECIFIED.,.F.,.F.,
  (2,2),(-21.525,2.5E-02),.PIECEWISE_BEZIER_KNOTS.);
#116 = CARTESIAN_POINT('',(21.5,-1.680384191928,2.781871486521));
#117 = CARTESIAN_POINT('',(-5.E-02,-1.680384191928,2.781871486521));
#118 = PCURVE('',#45,#119);
#119 = DEFINITIONAL_REPRESENTATION('',(#120),#124);
#120 = LINE('',#121,#122);
#121 = CARTESIAN_POINT('',(6.28318530718,0.));
#122 = VECTOR('',#123,1.);
#123 = DIRECTION('',(0.,1.));
#124 = ( GEOMETRIC_REPRESENTATION_CONTEXT(2) 
PARAMETRIC_REPRESENTATION_CONTEXT() REPRESENTATION_CONTEXT('2D SPACE',''
  ) );
#125 = PCURVE('',#45,#126);
#126 = DEFINITIONAL_REPRESENTATION('',(#127),#131);
#127 = LINE('',#128,#129);
#128 = CARTESIAN_POINT('',(0.,0.));
#129 = VECTOR('',#130,1.);
#130 = DIRECTION('',(0.,1.));
#131 = ( GEOMETRIC_REPRESENTATION_CONTEXT(2) 
PARAMETRIC_REPRESENTATION_CONTEXT() REPRESENTATION_CONTEXT('2D SPACE',''
  ) );
#132 = ORIENTED_EDGE('',*,*,#133,.F.);
#133 = EDGE_CURVE('',#112,#112,#134,.T.);
#134 = SURFACE_CURVE('',#135,(#140,#146),.PCURVE_S1.);
#135 = CIRCLE('',#136,3.25);
#136 = AXIS2_PLACEMENT_3D('',#137,#138,#139);
#137 = CARTESIAN_POINT('',(-5.E-02,1.093979622497E-17,5.168534434784E-17
    ));
#138 = DIRECTION('',(-1.,-4.375918489986E-17,-2.067413773914E-16));
#139 = DIRECTION('',(-1.543371385513E-16,-0.517041289824,0.855960457391)
  );
#140 = PCURVE('',#45,#141);
#141 = DEFINITIONAL_REPRESENTATION('',(#142),#145);
#142 = B_SPLINE_CURVE_WITH_KNOTS('',1,(#143,#144),.UNSPECIFIED.,.F.,.F.,
  (2,2),(0.,6.28318530718),.PIECEWISE_BEZIER_KNOTS.);
#143 = CARTESIAN_POINT('',(0.,2.5E-02));
#144 = CARTESIAN_POINT('',(6.28318530718,2.5E-02));
#145 = ( GEOMETRIC_REPRESENTATION_CONTEXT(2) 
PARAMETRIC_REPRESENTATION_CONTEXT() REPRESENTATION_CONTEXT('2D SPACE',''
  ) );
#146 = PCURVE('',#147,#152);
#147 = TOROIDAL_SURFACE('',#148,3.,0.25);
#148 = AXIS2_PLACEMENT_3D('',#149,#150,#151);
#149 = CARTESIAN_POINT('',(-5.E-02,1.093979622497E-17,5.168534434784E-17
    ));
#150 = DIRECTION('',(-1.,-4.375918489986E-17,-2.067413773914E-16));
#151 = DIRECTION('',(1.443499603484E-16,-0.855960457391,-0.517041289824)
  );
#152 = DEFINITIONAL_REPRESENTATION('',(#153),#156);
#153 = B_SPLINE_CURVE_WITH_KNOTS('',1,(#154,#155),.UNSPECIFIED.,.F.,.F.,
  (2,2),(0.,6.28318530718),.PIECEWISE_BEZIER_KNOTS.);
#154 = CARTESIAN_POINT('',(1.570796326795,6.28318530718));
#155 = CARTESIAN_POINT('',(7.853981633974,6.28318530718));
#156 = ( GEOMETRIC_REPRESENTATION_CONTEXT(2) 
PARAMETRIC_REPRESENTATION_CONTEXT() REPRESENTATION_CONTEXT('2D SPACE',''
  ) );
#157 = ORIENTED_EDGE('',*,*,#111,.F.);
#158 = ORIENTED_EDGE('',*,*,#21,.F.);
#159 = ADVANCED_FACE('',(#160),#147,.T.);
#160 = FACE_BOUND('',#161,.T.);
#161 = EDGE_LOOP('',(#162,#190,#214,#215));
#162 = ORIENTED_EDGE('',*,*,#163,.F.);
#163 = EDGE_CURVE('',#164,#164,#166,.T.);
#164 = VERTEX_POINT('',#165);
#165 = CARTESIAN_POINT('',(-0.3,-1.551123869472,2.567881372173));
#166 = SURFACE_CURVE('',#167,(#172,#178),.PCURVE_S1.);
#167 = CIRCLE('',#168,3.);
#168 = AXIS2_PLACEMENT_3D('',#169,#170,#171);
#169 = CARTESIAN_POINT('',(-0.3,-6.52650898429E-31,2.842463537674E-31));
#170 = DIRECTION('',(-1.,-4.375918489986E-17,-2.067413773914E-16));
#171 = DIRECTION('',(-1.543371385513E-16,-0.517041289824,0.855960457391)
  );
#172 = PCURVE('',#147,#173);
#173 = DEFINITIONAL_REPRESENTATION('',(#174),#177);
#174 = B_SPLINE_CURVE_WITH_KNOTS('',1,(#175,#176),.UNSPECIFIED.,.F.,.F.,
  (2,2),(0.,6.28318530718),.PIECEWISE_BEZIER_KNOTS.);
#175 = CARTESIAN_POINT('',(1.570796326795,7.853981633974));
#176 = CARTESIAN_POINT('',(7.853981633974,7.853981633974));
#177 = ( GEOMETRIC_REPRESENTATION_CONTEXT(2) 
PARAMETRIC_REPRESENTATION_CONTEXT() REPRESENTATION_CONTEXT('2D SPACE',''
  ) );
#178 = PCURVE('',#179,#184);
#179 = PLANE('',#180);
#180 = AXIS2_PLACEMENT_3D('',#181,#182,#183);
#181 = CARTESIAN_POINT('',(-0.3,-0.775561934736,1.283940686087));
#182 = DIRECTION('',(-1.,-4.375918489986E-17,-2.067413773914E-16));
#183 = DIRECTION('',(1.443499603484E-16,-0.855960457391,-0.517041289824)
  );
#184 = DEFINITIONAL_REPRESENTATION('',(#185),#189);
#185 = CIRCLE('',#186,3.);
#186 = AXIS2_PLACEMENT_2D('',#187,#188);
#187 = CARTESIAN_POINT('',(-2.109423746788E-15,-1.5));
#188 = DIRECTION('',(0.,1.));
#189 = ( GEOMETRIC_REPRESENTATION_CONTEXT(2) 
PARAMETRIC_REPRESENTATION_CONTEXT() REPRESENTATION_CONTEXT('2D SPACE',''
  ) );
#190 = ORIENTED_EDGE('',*,*,#191,.F.);
#191 = EDGE_CURVE('',#112,#164,#192,.T.);
#192 = SEAM_CURVE('',#193,(#200,#207),.PCURVE_S1.);
#193 = B_SPLINE_CURVE_WITH_KNOTS('',5,(#194,#195,#196,#197,#198,#199),
  .UNSPECIFIED.,.F.,.F.,(6,6),(-1.33226762955E-15,1.570796326795),
  .PIECEWISE_BEZIER_KNOTS.);
#194 = CARTESIAN_POINT('',(-5.E-02,-1.680384191928,2.781871486521));
#195 = CARTESIAN_POINT('',(-0.12853981634,-1.680384191928,2.781871486521
    ));
#196 = CARTESIAN_POINT('',(-0.207152910841,-1.664483232838,
    2.755547491739));
#197 = CARTESIAN_POINT('',(-0.269246248989,-1.632378413192,
    2.702398049617));
#198 = CARTESIAN_POINT('',(-0.3,-1.591732197415,2.635108349291));
#199 = CARTESIAN_POINT('',(-0.3,-1.551123869472,2.567881372173));
#200 = PCURVE('',#147,#201);
#201 = DEFINITIONAL_REPRESENTATION('',(#202),#206);
#202 = LINE('',#203,#204);
#203 = CARTESIAN_POINT('',(1.570796326795,6.28318530718));
#204 = VECTOR('',#205,1.);
#205 = DIRECTION('',(0.,1.));
#206 = ( GEOMETRIC_REPRESENTATION_CONTEXT(2) 
PARAMETRIC_REPRESENTATION_CONTEXT() REPRESENTATION_CONTEXT('2D SPACE',''
  ) );
#207 = PCURVE('',#147,#208);
#208 = DEFINITIONAL_REPRESENTATION('',(#209),#213);
#209 = LINE('',#210,#211);
#210 = CARTESIAN_POINT('',(7.853981633974,6.28318530718));
#211 = VECTOR('',#212,1.);
#212 = DIRECTION('',(0.,1.));
#213 = ( GEOMETRIC_REPRESENTATION_CONTEXT(2) 
PARAMETRIC_REPRESENTATION_CONTEXT() REPRESENTATION_CONTEXT('2D SPACE',''
  ) );
#214 = ORIENTED_EDGE('',*,*,#133,.T.);
#215 = ORIENTED_EDGE('',*,*,#191,.T.);
#216 = ADVANCED_FACE('',(#217),#179,.T.);
#217 = FACE_BOUND('',#218,.T.);
#218 = EDGE_LOOP('',(#219));
#219 = ORIENTED_EDGE('',*,*,#163,.T.);
#220 = ADVANCED_FACE('',(#221),#96,.T.);
#221 = FACE_BOUND('',#222,.T.);
#222 = EDGE_LOOP('',(#223,#224,#246,#272));
#223 = ORIENTED_EDGE('',*,*,#79,.T.);
#224 = ORIENTED_EDGE('',*,*,#225,.T.);
#225 = EDGE_CURVE('',#80,#226,#228,.T.);
#226 = VERTEX_POINT('',#227);
#227 = CARTESIAN_POINT('',(100.,-1.549987860092,-6.134620495294E-03));
#228 = SEAM_CURVE('',#229,(#232,#239),.PCURVE_S1.);
#229 = B_SPLINE_CURVE_WITH_KNOTS('',1,(#230,#231),.UNSPECIFIED.,.F.,.F.,
  (2,2),(21.5,100.),.PIECEWISE_BEZIER_KNOTS.);
#230 = CARTESIAN_POINT('',(21.5,-1.549987860092,-6.134620495293E-03));
#231 = CARTESIAN_POINT('',(100.,-1.549987860092,-6.134620495293E-03));
#232 = PCURVE('',#96,#233);
#233 = DEFINITIONAL_REPRESENTATION('',(#234),#238);
#234 = LINE('',#235,#236);
#235 = CARTESIAN_POINT('',(9.424777960769,0.));
#236 = VECTOR('',#237,1.);
#237 = DIRECTION('',(0.,1.));
#238 = ( GEOMETRIC_REPRESENTATION_CONTEXT(2) 
PARAMETRIC_REPRESENTATION_CONTEXT() REPRESENTATION_CONTEXT('2D SPACE',''
  ) );
#239 = PCURVE('',#96,#240);
#240 = DEFINITIONAL_REPRESENTATION('',(#241),#245);
#241 = LINE('',#242,#243);
#242 = CARTESIAN_POINT('',(3.14159265359,0.));
#243 = VECTOR('',#244,1.);
#244 = DIRECTION('',(0.,1.));
#245 = ( GEOMETRIC_REPRESENTATION_CONTEXT(2) 
PARAMETRIC_REPRESENTATION_CONTEXT() REPRESENTATION_CONTEXT('2D SPACE',''
  ) );
#246 = ORIENTED_EDGE('',*,*,#247,.T.);
#247 = EDGE_CURVE('',#226,#226,#248,.T.);
#248 = SURFACE_CURVE('',#249,(#254,#260),.PCURVE_S1.);
#249 = CIRCLE('',#250,1.55);
#250 = AXIS2_PLACEMENT_3D('',#251,#252,#253);
#251 = CARTESIAN_POINT('',(100.,3.420221405256E-14,-4.884514629831E-17)
  );
#252 = DIRECTION('',(-1.,-3.410686386371E-16,1.893189135333E-31));
#253 = DIRECTION('',(-3.410659673197E-16,0.999992167801,
    3.957819674383E-03));
#254 = PCURVE('',#96,#255);
#255 = DEFINITIONAL_REPRESENTATION('',(#256),#259);
#256 = B_SPLINE_CURVE_WITH_KNOTS('',1,(#257,#258),.UNSPECIFIED.,.F.,.F.,
  (2,2),(3.14159265359,9.424777960769),.PIECEWISE_BEZIER_KNOTS.);
#257 = CARTESIAN_POINT('',(9.424777960769,100.));
#258 = CARTESIAN_POINT('',(3.14159265359,100.));
#259 = ( GEOMETRIC_REPRESENTATION_CONTEXT(2) 
PARAMETRIC_REPRESENTATION_CONTEXT() REPRESENTATION_CONTEXT('2D SPACE',''
  ) );
#260 = PCURVE('',#261,#266);
#261 = PLANE('',#262);
#262 = AXIS2_PLACEMENT_3D('',#263,#264,#265);
#263 = CARTESIAN_POINT('',(100.,3.420221405256E-14,-4.884514629831E-17)
  );
#264 = DIRECTION('',(-1.,-3.410686386371E-16,1.893189135333E-31));
#265 = DIRECTION('',(-3.410659673197E-16,0.999992167801,
    3.957819674383E-03));
#266 = DEFINITIONAL_REPRESENTATION('',(#267),#271);
#267 = CIRCLE('',#268,1.55);
#268 = AXIS2_PLACEMENT_2D('',#269,#270);
#269 = CARTESIAN_POINT('',(0.,0.));
#270 = DIRECTION('',(1.,0.));
#271 = ( GEOMETRIC_REPRESENTATION_CONTEXT(2) 
PARAMETRIC_REPRESENTATION_CONTEXT() REPRESENTATION_CONTEXT('2D SPACE',''
  ) );
#272 = ORIENTED_EDGE('',*,*,#225,.F.);
#273 = ADVANCED_FACE('',(#274),#261,.F.);
#274 = FACE_BOUND('',#275,.T.);
#275 = EDGE_LOOP('',(#276));
#276 = ORIENTED_EDGE('',*,*,#247,.F.);
#277 = ( GEOMETRIC_REPRESENTATION_CONTEXT(3) 
GLOBAL_UNCERTAINTY_ASSIGNED_CONTEXT((#281)) GLOBAL_UNIT_ASSIGNED_CONTEXT
((#278,#279,#280)) REPRESENTATION_CONTEXT('Context #1',
  '3D Context with UNIT and UNCERTAINTY') );
#278 = ( LENGTH_UNIT() NAMED_UNIT(*) SI_UNIT(.MILLI.,.METRE.) );
#279 = ( NAMED_UNIT(*) PLANE_ANGLE_UNIT() SI_UNIT($,.RADIAN.) );
#280 = ( NAMED_UNIT(*) SI_UNIT($,.STERADIAN.) SOLID_ANGLE_UNIT() );
#281 = UNCERTAINTY_MEASURE_WITH_UNIT(LENGTH_MEASURE(5.E-06),#278,
  'distance_accuracy_value','confusion accuracy');
#282 = PRODUCT_TYPE('part',$,(#7));
#283 = MECHANICAL_DESIGN_GEOMETRIC_PRESENTATION_REPRESENTATION('',(#284,
    #292,#299,#307,#314,#321),#277);
#284 = STYLED_ITEM('color',(#285),#17);
#285 = PRESENTATION_STYLE_ASSIGNMENT((#286));
#286 = SURFACE_STYLE_USAGE(.BOTH.,#287);
#287 = SURFACE_SIDE_STYLE('',(#288));
#288 = SURFACE_STYLE_FILL_AREA(#289);
#289 = FILL_AREA_STYLE('',(#290));
#290 = FILL_AREA_STYLE_COLOUR('',#291);
#291 = DRAUGHTING_PRE_DEFINED_COLOUR('white');
#292 = STYLED_ITEM('color',(#293),#106);
#293 = PRESENTATION_STYLE_ASSIGNMENT((#294));
#294 = SURFACE_STYLE_USAGE(.BOTH.,#295);
#295 = SURFACE_SIDE_STYLE('',(#296));
#296 = SURFACE_STYLE_FILL_AREA(#297);
#297 = FILL_AREA_STYLE('',(#298));
#298 = FILL_AREA_STYLE_COLOUR('',#291);
#299 = STYLED_ITEM('color',(#300),#159);
#300 = PRESENTATION_STYLE_ASSIGNMENT((#301));
#301 = SURFACE_STYLE_USAGE(.BOTH.,#302);
#302 = SURFACE_SIDE_STYLE('',(#303));
#303 = SURFACE_STYLE_FILL_AREA(#304);
#304 = FILL_AREA_STYLE('',(#305));
#305 = FILL_AREA_STYLE_COLOUR('',#306);
#306 = COLOUR_RGB('',0.160784319043,0.450980395079,0.721568644047);
#307 = STYLED_ITEM('color',(#308),#216);
#308 = PRESENTATION_STYLE_ASSIGNMENT((#309));
#309 = SURFACE_STYLE_USAGE(.BOTH.,#310);
#310 = SURFACE_SIDE_STYLE('',(#311));
#311 = SURFACE_STYLE_FILL_AREA(#312);
#312 = FILL_AREA_STYLE('',(#313));
#313 = FILL_AREA_STYLE_COLOUR('',#306);
#314 = STYLED_ITEM('color',(#315),#220);
#315 = PRESENTATION_STYLE_ASSIGNMENT((#316));
#316 = SURFACE_STYLE_USAGE(.BOTH.,#317);
#317 = SURFACE_SIDE_STYLE('',(#318));
#318 = SURFACE_STYLE_FILL_AREA(#319);
#319 = FILL_AREA_STYLE('',(#320));
#320 = FILL_AREA_STYLE_COLOUR('',#291);
#321 = STYLED_ITEM('color',(#322),#273);
#322 = PRESENTATION_STYLE_ASSIGNMENT((#323));
#323 = SURFACE_STYLE_USAGE(.BOTH.,#324);
#324 = SURFACE_SIDE_STYLE('',(#325));
#325 = SURFACE_STYLE_FILL_AREA(#326);
#326 = FILL_AREA_STYLE('',(#327));
#327 = FILL_AREA_STYLE_COLOUR('',#291);
ENDSEC;
END-ISO-10303-21;
