 PTC IGES file: D:\Tpo v2\SharedFS\Outgoing\dw-ad-503-065e.igs          S      1
1H,,1H;,7HMODEL12,46HD:\Tpo v2\SharedFS\Outgoing\dw-ad-503-065e.igs,    G      1
37H by Parametric Technology Corporation,7H2010230,32,38,7,38,15,       G      2
7HMODEL12,1.,2,2HMM,32768,0.5,15H20110316.101444,  0.001,10.0004,,      G      3
7HUnknown,10,0,15H20110316.101444;                                      G      4
     124       1       1       1       0       0       0       001000000D      1
     124       0       0       1       0                   XFORM       1D      2
     100       2       1       1       0       0       1       001010000D      3
     100       0       0       1       0                     ARC       1D      4
     124       3       1       1       0       0       0       001000000D      5
     124       0       0       1       0                   XFORM       2D      6
     100       4       1       1       0       0       5       001010000D      7
     100       0       0       1       0                     ARC       2D      8
     124       5       1       1       0       0       0       001000000D      9
     124       0       0       1       0                   XFORM       3D     10
     100       6       1       1       0       0       9       001010000D     11
     100       0       0       1       0                     ARC       3D     12
     124       7       1       1       0       0       0       001000000D     13
     124       0       0       1       0                   XFORM       4D     14
     100       8       1       1       0       0      13       001010000D     15
     100       0       0       1       0                     ARC       4D     16
     110       9       1       1       0       0       0       001010000D     17
     110       0       0       1       0                    LINE       1D     18
     110      10       1       1       0       0       0       001010000D     19
     110       0       0       1       0                    LINE       2D     20
     124      11       1       1       0       0       0       001000000D     21
     124       0       0       1       0                   XFORM       5D     22
     100      12       1       1       0       0      21       001010000D     23
     100       0       0       1       0                     ARC       5D     24
     124      13       1       1       0       0       0       001000000D     25
     124       0       0       1       0                   XFORM       6D     26
     100      14       1       1       0       0      25       001010000D     27
     100       0       0       1       0                     ARC       6D     28
     110      15       1       1       0       0       0       001010000D     29
     110       0       0       1       0                    LINE       3D     30
     110      16       1       1       0       0       0       001010000D     31
     110       0       0       1       0                    LINE       4D     32
     124      17       1       1       0       0       0       001000000D     33
     124       0       0       1       0                   XFORM       7D     34
     100      18       1       1       0       0      33       001010000D     35
     100       0       0       1       0                     ARC       7D     36
     124      19       1       1       0       0       0       001000000D     37
     124       0       0       1       0                   XFORM       8D     38
     100      20       1       1       0       0      37       001010000D     39
     100       0       0       1       0                     ARC       8D     40
     502      21       1       1       0       0       0       001010000D     41
     502       0       0       3       1                  VERTEX       1D     42
     504      24       1       1       0       0       0       000010001D     43
     504       0       0       3       1                    EDGE       1D     44
     114      27       1       1       0       0       0       001010000D     45
     114       0       0      14       0                  SPLSRF       1D     46
     508      41       1       1       0       0       0       001010000D     47
     508       0       0       1       1                EDGELOOP       1D     48
     508      42       1       1       0       0       0       001010000D     49
     508       0       0       1       1                EDGELOOP       2D     50
     510      43       1       1       0       0       0       000010000D     51
     510       0       0       1       1                    FACE       1D     52
     110      44       1       1       0       0       0       001010000D     53
     110       0       0       1       0                    LINE       5D     54
     110      45       1       1       0       0       0       001010000D     55
     110       0       0       1       0                    LINE       6D     56
     120      46       1       1       0       0       0       001010000D     57
     120       0       0       1       0                    SREV       1D     58
     508      47       1       1       0       0       0       001010000D     59
     508       0       0       1       1                EDGELOOP       3D     60
     510      48       1       1       0       0       0       000010000D     61
     510       0       0       1       1                    FACE       2D     62
     110      49       1       1       0       0       0       001010000D     63
     110       0       0       1       0                    LINE       7D     64
     110      50       1       1       0       0       0       001010000D     65
     110       0       0       1       0                    LINE       8D     66
     120      51       1       1       0       0       0       001010000D     67
     120       0       0       1       0                    SREV       2D     68
     508      52       1       1       0       0       0       001010000D     69
     508       0       0       1       1                EDGELOOP       4D     70
     510      53       1       1       0       0       0       000010000D     71
     510       0       0       1       1                    FACE       3D     72
     114      54       1       1       0       0       0       001010000D     73
     114       0       0      14       0                  SPLSRF       2D     74
     508      68       1       1       0       0       0       001010000D     75
     508       0       0       1       1                EDGELOOP       5D     76
     510      69       1       1       0       0       0       000010000D     77
     510       0       0       1       1                    FACE       4D     78
     110      70       1       1       0       0       0       001010000D     79
     110       0       0       1       0                    LINE       9D     80
     110      71       1       1       0       0       0       001010000D     81
     110       0       0       1       0                    LINE      10D     82
     120      72       1       1       0       0       0       001010000D     83
     120       0       0       1       0                    SREV       3D     84
     508      73       1       1       0       0       0       001010000D     85
     508       0       0       1       1                EDGELOOP       6D     86
     510      74       1       1       0       0       0       000010000D     87
     510       0       0       1       1                    FACE       5D     88
     110      75       1       1       0       0       0       001010000D     89
     110       0       0       1       0                    LINE      11D     90
     110      76       1       1       0       0       0       001010000D     91
     110       0       0       1       0                    LINE      12D     92
     120      77       1       1       0       0       0       001010000D     93
     120       0       0       1       0                    SREV       4D     94
     508      78       1       1       0       0       0       001010000D     95
     508       0       0       1       1                EDGELOOP       7D     96
     510      79       1       1       0       0       0       000010000D     97
     510       0       0       1       1                    FACE       6D     98
     114      80       1       1       0       0       0       001010000D     99
     114       0       0      14       0                  SPLSRF       3D    100
     508      94       1       1       0       0       0       001010000D    101
     508       0       0       1       1                EDGELOOP       8D    102
     510      95       1       1       0       0       0       000010000D    103
     510       0       0       1       1                    FACE       7D    104
     514      96       1       1       0       0       0       000010000D    105
     514       0       0       1       1                   SHELL       1D    106
     186      97       1       1       0       0       0       000000000D    107
     186       0       0       1       0                    MSBR       1D    108
124,1D0,0D0,0D0,0D0,0D0,0D0,1D0,-4.5D1,0D0,-1D0,0D0,0D0;               1P      1
100,0D0,0D0,0D0,3.25D0,0D0,-3.25D0,0D0;                                3P      2
124,-1D0,0D0,0D0,0D0,0D0,0D0,1D0,-4.5D1,0D0,1D0,0D0,0D0;               5P      3
100,0D0,0D0,0D0,3.25D0,0D0,-3.25D0,0D0;                                7P      4
124,1D0,0D0,0D0,0D0,0D0,0D0,1D0,-4.5D1,0D0,-1D0,0D0,0D0;               9P      5
100,0D0,0D0,0D0,1.75D0,0D0,-1.75D0,0D0;                               11P      6
124,-1D0,0D0,0D0,0D0,0D0,0D0,1D0,-4.5D1,0D0,1D0,0D0,0D0;              13P      7
100,0D0,0D0,0D0,1.75D0,0D0,-1.75D0,0D0;                               15P      8
110,3.25D0,-4.5D1,0D0,3.25D0,0D0,0D0;                                 17P      9
110,-3.25D0,-4.5D1,0D0,-3.25D0,0D0,0D0;                               19P     10
124,1D0,0D0,0D0,0D0,0D0,0D0,1D0,0D0,0D0,-1D0,0D0,0D0;                 21P     11
100,0D0,0D0,0D0,3.25D0,0D0,-3.25D0,0D0;                               23P     12
124,-1D0,0D0,0D0,0D0,0D0,0D0,1D0,0D0,0D0,1D0,0D0,0D0;                 25P     13
100,0D0,0D0,0D0,3.25D0,0D0,-3.25D0,0D0;                               27P     14
110,1.75D0,-6.5D1,0D0,1.75D0,-4.5D1,0D0;                              29P     15
110,-1.75D0,-6.5D1,0D0,-1.75D0,-4.5D1,0D0;                            31P     16
124,1D0,0D0,0D0,0D0,0D0,0D0,1D0,-6.5D1,0D0,-1D0,0D0,0D0;              33P     17
100,0D0,0D0,0D0,1.75D0,0D0,-1.75D0,0D0;                               35P     18
124,-1D0,0D0,0D0,0D0,0D0,0D0,1D0,-6.5D1,0D0,1D0,0D0,0D0;              37P     19
100,0D0,0D0,0D0,1.75D0,0D0,-1.75D0,0D0;                               39P     20
502,8,3.25D0,-4.5D1,0D0,-3.25D0,-4.5D1,0D0,3.25D0,0D0,0D0,            41P     21
-3.25D0,0D0,0D0,1.75D0,-6.5D1,0D0,-1.75D0,-6.5D1,0D0,1.75D0,          41P     22
-4.5D1,0D0,-1.75D0,-4.5D1,0D0;                                        41P     23
504,12,3,41,1,41,2,7,41,2,41,1,23,41,3,41,4,27,41,4,41,3,17,41,       43P     24
1,41,3,19,41,2,41,4,35,41,5,41,6,39,41,6,41,5,11,41,7,41,8,15,        43P     25
41,8,41,7,29,41,5,41,7,31,41,6,41,8;                                  43P     26
114,3,1,1,1,-3.25D0,3.25D0,-3.252676792604D0,3.252676792604D0,        45P     27
-3.25D0,1D0,0D0,0D0,0D0,0D0,0D0,0D0,0D0,0D0,0D0,0D0,0D0,0D0,0D0,      45P     28
0D0,-4.5D1,0D0,0D0,0D0,0D0,0D0,0D0,0D0,0D0,0D0,0D0,0D0,0D0,0D0,       45P     29
0D0,0D0,3.252676792604D0,0D0,0D0,0D0,-1D0,0D0,0D0,0D0,0D0,0D0,        45P     30
0D0,0D0,0D0,0D0,0D0,0D0,0D0,0D0,0D0,0D0,0D0,0D0,0D0,0D0,0D0,0D0,      45P     31
0D0,0D0,0D0,0D0,0D0,0D0,0D0,0D0,0D0,0D0,0D0,0D0,0D0,0D0,0D0,0D0,      45P     32
0D0,0D0,0D0,0D0,0D0,0D0,0D0,0D0,0D0,0D0,0D0,0D0,0D0,0D0,0D0,0D0,      45P     33
0D0,0D0,0D0,0D0,0D0,0D0,0D0,0D0,0D0,0D0,0D0,0D0,0D0,0D0,0D0,0D0,      45P     34
0D0,0D0,0D0,0D0,0D0,0D0,0D0,0D0,0D0,0D0,0D0,0D0,0D0,0D0,0D0,0D0,      45P     35
0D0,0D0,0D0,0D0,0D0,0D0,0D0,0D0,0D0,0D0,0D0,0D0,0D0,0D0,0D0,0D0,      45P     36
0D0,0D0,0D0,0D0,0D0,0D0,0D0,0D0,0D0,0D0,0D0,0D0,0D0,0D0,0D0,0D0,      45P     37
0D0,0D0,0D0,0D0,0D0,0D0,0D0,0D0,0D0,0D0,0D0,0D0,0D0,0D0,0D0,0D0,      45P     38
0D0,0D0,0D0,0D0,0D0,0D0,0D0,0D0,0D0,0D0,0D0,0D0,0D0,0D0,0D0,0D0,      45P     39
0D0,0D0,0D0,0D0,0D0,0D0;                                              45P     40
508,2,0,43,1,1,0,0,43,2,1,0;                                          47P     41
508,2,0,43,9,0,0,0,43,10,0,0;                                         49P     42
510,45,2,0,47,49;                                                     51P     43
110,0D0,-4.5D1,0D0,0D0,-4.4D1,0D0;                                    53P     44
110,3.25D0,-4.5D1,0D0,3.25D0,0D0,0D0;                                 55P     45
120,53,55,0D0,3.141592653590D0;                                       57P     46
508,4,0,43,1,0,0,0,43,5,1,0,0,43,3,1,0,0,43,6,0,0;                    59P     47
510,57,1,0,59;                                                        61P     48
110,0D0,-4.5D1,0D0,0D0,-4.4D1,0D0;                                    63P     49
110,3.25D0,-4.5D1,0D0,3.25D0,0D0,0D0;                                 65P     50
120,63,65,3.141592653590D0,6.283185307180D0;                          67P     51
508,4,0,43,2,0,0,0,43,6,1,0,0,43,4,1,0,0,43,5,0,0;                    69P     52
510,67,1,0,69;                                                        71P     53
114,3,1,1,1,-3.25D0,3.25D0,-3.252676792604D0,3.252676792604D0,        73P     54
-3.25D0,1D0,0D0,0D0,0D0,0D0,0D0,0D0,0D0,0D0,0D0,0D0,0D0,0D0,0D0,      73P     55
0D0,0D0,0D0,0D0,0D0,0D0,0D0,0D0,0D0,0D0,0D0,0D0,0D0,0D0,0D0,0D0,      73P     56
0D0,3.252676792604D0,0D0,0D0,0D0,-1D0,0D0,0D0,0D0,0D0,0D0,0D0,        73P     57
0D0,0D0,0D0,0D0,0D0,0D0,0D0,0D0,0D0,0D0,0D0,0D0,0D0,0D0,0D0,0D0,      73P     58
0D0,0D0,0D0,0D0,0D0,0D0,0D0,0D0,0D0,0D0,0D0,0D0,0D0,0D0,0D0,0D0,      73P     59
0D0,0D0,0D0,0D0,0D0,0D0,0D0,0D0,0D0,0D0,0D0,0D0,0D0,0D0,0D0,0D0,      73P     60
0D0,0D0,0D0,0D0,0D0,0D0,0D0,0D0,0D0,0D0,0D0,0D0,0D0,0D0,0D0,0D0,      73P     61
0D0,0D0,0D0,0D0,0D0,0D0,0D0,0D0,0D0,0D0,0D0,0D0,0D0,0D0,0D0,0D0,      73P     62
0D0,0D0,0D0,0D0,0D0,0D0,0D0,0D0,0D0,0D0,0D0,0D0,0D0,0D0,0D0,0D0,      73P     63
0D0,0D0,0D0,0D0,0D0,0D0,0D0,0D0,0D0,0D0,0D0,0D0,0D0,0D0,0D0,0D0,      73P     64
0D0,0D0,0D0,0D0,0D0,0D0,0D0,0D0,0D0,0D0,0D0,0D0,0D0,0D0,0D0,0D0,      73P     65
0D0,0D0,0D0,0D0,0D0,0D0,0D0,0D0,0D0,0D0,0D0,0D0,0D0,0D0,0D0,0D0,      73P     66
0D0,0D0,0D0,0D0,0D0;                                                  73P     67
508,2,0,43,3,0,0,0,43,4,0,0;                                          75P     68
510,73,1,0,75;                                                        77P     69
110,0D0,-6.5D1,0D0,0D0,-6.4D1,0D0;                                    79P     70
110,1.75D0,-6.5D1,0D0,1.75D0,-4.5D1,0D0;                              81P     71
120,79,81,0D0,3.141592653590D0;                                       83P     72
508,4,0,43,9,1,0,0,43,12,0,0,0,43,7,0,0,0,43,11,1,0;                  85P     73
510,83,1,0,85;                                                        87P     74
110,0D0,-6.5D1,0D0,0D0,-6.4D1,0D0;                                    89P     75
110,1.75D0,-6.5D1,0D0,1.75D0,-4.5D1,0D0;                              91P     76
120,89,91,3.141592653590D0,6.283185307180D0;                          93P     77
508,4,0,43,10,1,0,0,43,11,0,0,0,43,8,0,0,0,43,12,1,0;                 95P     78
510,93,1,0,95;                                                        97P     79
114,3,1,1,1,-1.75D0,1.75D0,-1.750590270616D0,1.750590270616D0,        99P     80
-1.75D0,1D0,0D0,0D0,0D0,0D0,0D0,0D0,0D0,0D0,0D0,0D0,0D0,0D0,0D0,      99P     81
0D0,-6.5D1,0D0,0D0,0D0,0D0,0D0,0D0,0D0,0D0,0D0,0D0,0D0,0D0,0D0,       99P     82
0D0,0D0,1.750590270616D0,0D0,0D0,0D0,-1D0,0D0,0D0,0D0,0D0,0D0,        99P     83
0D0,0D0,0D0,0D0,0D0,0D0,0D0,0D0,0D0,0D0,0D0,0D0,0D0,0D0,0D0,0D0,      99P     84
0D0,0D0,0D0,0D0,0D0,0D0,0D0,0D0,0D0,0D0,0D0,0D0,0D0,0D0,0D0,0D0,      99P     85
0D0,0D0,0D0,0D0,0D0,0D0,0D0,0D0,0D0,0D0,0D0,0D0,0D0,0D0,0D0,0D0,      99P     86
0D0,0D0,0D0,0D0,0D0,0D0,0D0,0D0,0D0,0D0,0D0,0D0,0D0,0D0,0D0,0D0,      99P     87
0D0,0D0,0D0,0D0,0D0,0D0,0D0,0D0,0D0,0D0,0D0,0D0,0D0,0D0,0D0,0D0,      99P     88
0D0,0D0,0D0,0D0,0D0,0D0,0D0,0D0,0D0,0D0,0D0,0D0,0D0,0D0,0D0,0D0,      99P     89
0D0,0D0,0D0,0D0,0D0,0D0,0D0,0D0,0D0,0D0,0D0,0D0,0D0,0D0,0D0,0D0,      99P     90
0D0,0D0,0D0,0D0,0D0,0D0,0D0,0D0,0D0,0D0,0D0,0D0,0D0,0D0,0D0,0D0,      99P     91
0D0,0D0,0D0,0D0,0D0,0D0,0D0,0D0,0D0,0D0,0D0,0D0,0D0,0D0,0D0,0D0,      99P     92
0D0,0D0,0D0,0D0,0D0,0D0;                                              99P     93
508,2,0,43,7,1,0,0,43,8,1,0;                                         101P     94
510,99,1,0,101;                                                      103P     95
514,7,51,0,61,1,71,1,77,1,87,1,97,1,103,0;                           105P     96
186,105,1,0;                                                         107P     97
S      1G      4D    108P     97                                        T      1
