ISO-10303-21;
HEADER;
FILE_DESCRIPTION(('STEP AP203'),'1');
FILE_NAME(' ','  ',('TraceParts'),('TraceParts S.A.'),'XStep 1.0',' ',' ');
FILE_SCHEMA(('CONFIG_CONTROL_DESIGN'));
ENDSEC;
DATA;
#1=DESIGN_CONTEXT('',#27,'design');
#2=APPLICATION_PROTOCOL_DEFINITION('INTERNATIONAL STANDARD','config_control_design',1994,#27);
#3=PRODUCT_CATEGORY_RELATIONSHIP('NONE','NONE',#28,#29);
#4=DATE_AND_TIME(#30,#31);
#5=DATE_TIME_ROLE('creation_date');
#6=DATE_TIME_ROLE('classification_date');
#7=PERSON_AND_ORGANIZATION_ROLE('creator');
#8=PERSON_AND_ORGANIZATION_ROLE('design_supplier');
#9=PERSON_AND_ORGANIZATION_ROLE('classification_officer');
#10=PERSON_AND_ORGANIZATION_ROLE('design_owner');
#11=APPROVAL_PERSON_ORGANIZATION(#32,#33,#34);
#12=APPROVAL_DATE_TIME(#4,#33);
#13=CC_DESIGN_APPROVAL(#33,(#35,#36,#37));
#14=CC_DESIGN_DATE_AND_TIME_ASSIGNMENT(#4,#5,(#37));
#15=CC_DESIGN_DATE_AND_TIME_ASSIGNMENT(#4,#6,(#35));
#16=CC_DESIGN_PERSON_AND_ORGANIZATION_ASSIGNMENT(#32,#10,(#38));
#17=CC_DESIGN_PERSON_AND_ORGANIZATION_ASSIGNMENT(#32,#7,(#37));
#18=CC_DESIGN_PERSON_AND_ORGANIZATION_ASSIGNMENT(#32,#7,(#36));
#19=CC_DESIGN_PERSON_AND_ORGANIZATION_ASSIGNMENT(#32,#8,(#36));
#20=CC_DESIGN_SECURITY_CLASSIFICATION(#35,(#36));
#21=CC_DESIGN_PERSON_AND_ORGANIZATION_ASSIGNMENT(#32,#9,(#35));
#22=SHAPE_DEFINITION_REPRESENTATION(#39,#40);
#23= (GEOMETRIC_REPRESENTATION_CONTEXT(3)GLOBAL_UNCERTAINTY_ASSIGNED_CONTEXT((#43))GLOBAL_UNIT_ASSIGNED_CONTEXT((#45,#46,#47))REPRESENTATION_CONTEXT('NONE','WORKSPACE'));
#27=APPLICATION_CONTEXT('CONFIGURATION CONTROLLED 3D DESIGNS OF MECHANICAL PARTS AND ASSEMBLIES');
#28=PRODUCT_CATEGORY('part','NONE');
#29=PRODUCT_RELATED_PRODUCT_CATEGORY('detail',' ',(#38));
#30=CALENDAR_DATE(2011,16,2);
#31=LOCAL_TIME(10,16,20.0,#49);
#32=PERSON_AND_ORGANIZATION(#50,#51);
#33=APPROVAL(#52,'SOLID MODEL');
#34=APPROVAL_ROLE('APPROVED');
#35=SECURITY_CLASSIFICATION('','',#53);
#36=PRODUCT_DEFINITION_FORMATION_WITH_SPECIFIED_SOURCE(' ','NONE',#38,.NOT_KNOWN.);
#37=PRODUCT_DEFINITION('NONE','NONE',#36,#1);
#38=PRODUCT('1','1','PART-1-DESC',(#54));
#39=PRODUCT_DEFINITION_SHAPE('NONE','NONE',#37);
#40=ADVANCED_BREP_SHAPE_REPRESENTATION('1',(#55,#56),#23);
#43=UNCERTAINTY_MEASURE_WITH_UNIT(LENGTH_MEASURE(1.0E-006),#45,'','');
#45= (CONVERSION_BASED_UNIT('MILLIMETRE',#59)LENGTH_UNIT()NAMED_UNIT(#62));
#46= (NAMED_UNIT(#64)PLANE_ANGLE_UNIT()SI_UNIT($,.RADIAN.));
#47= (NAMED_UNIT(#64)SOLID_ANGLE_UNIT()SI_UNIT($,.STERADIAN.));
#49=COORDINATED_UNIVERSAL_TIME_OFFSET(1,0,.AHEAD.);
#50=PERSON('','UNSPECIFIED',$,$,$,$);
#51=ORGANIZATION('UNSPECIFIED','UNSPECIFIED','UNSPECIFIED');
#52=APPROVAL_STATUS('approved');
#53=SECURITY_CLASSIFICATION_LEVEL('unclassified');
#54=MECHANICAL_CONTEXT('',#27,'mechanical');
#55=MANIFOLD_SOLID_BREP('1',#70);
#56=AXIS2_PLACEMENT_3D('',#71,#72,#73);
#59=LENGTH_MEASURE_WITH_UNIT(LENGTH_MEASURE(1.0),#74);
#62=DIMENSIONAL_EXPONENTS(1.0,0.0,0.0,0.0,0.0,0.0,0.0);
#64=DIMENSIONAL_EXPONENTS(0.0,0.0,0.0,0.0,0.0,0.0,0.0);
#70=CLOSED_SHELL('',(#75,#76,#77,#78,#79,#80,#81));
#71=CARTESIAN_POINT('',(0.0,0.0,0.0));
#72=DIRECTION('',(0.0,0.0,1.0));
#73=DIRECTION('',(1.0,0.0,0.0));
#74= (NAMED_UNIT(#62)LENGTH_UNIT()SI_UNIT(.MILLI.,.METRE.));
#75=ADVANCED_FACE('',(#83),#84,.T.);
#76=ADVANCED_FACE('',(#85),#86,.T.);
#77=ADVANCED_FACE('',(#87),#88,.T.);
#78=ADVANCED_FACE('',(#89),#90,.T.);
#79=ADVANCED_FACE('',(#91),#92,.T.);
#80=ADVANCED_FACE('',(#93,#94),#95,.T.);
#81=ADVANCED_FACE('',(#96),#97,.T.);
#83=FACE_OUTER_BOUND('',#98,.T.);
#84=CYLINDRICAL_SURFACE('',#99,3.25);
#85=FACE_OUTER_BOUND('',#100,.T.);
#86=CYLINDRICAL_SURFACE('',#101,1.75);
#87=FACE_OUTER_BOUND('',#102,.T.);
#88=CYLINDRICAL_SURFACE('',#103,1.75);
#89=FACE_OUTER_BOUND('',#104,.T.);
#90=PLANE('',#105);
#91=FACE_OUTER_BOUND('',#106,.T.);
#92=CYLINDRICAL_SURFACE('',#107,3.25);
#93=FACE_BOUND('',#108,.T.);
#94=FACE_OUTER_BOUND('',#109,.T.);
#95=PLANE('',#110);
#96=FACE_OUTER_BOUND('',#111,.T.);
#97=PLANE('',#112);
#98=EDGE_LOOP('',(#113,#114,#115,#116));
#99=AXIS2_PLACEMENT_3D('',#117,#118,#119);
#100=EDGE_LOOP('',(#120,#121,#122,#123));
#101=AXIS2_PLACEMENT_3D('',#124,#125,#126);
#102=EDGE_LOOP('',(#127,#128,#129,#130));
#103=AXIS2_PLACEMENT_3D('',#131,#132,#133);
#104=EDGE_LOOP('',(#134,#135));
#105=AXIS2_PLACEMENT_3D('',#136,#137,#138);
#106=EDGE_LOOP('',(#139,#140,#141,#142));
#107=AXIS2_PLACEMENT_3D('',#143,#144,#145);
#108=EDGE_LOOP('',(#146,#147));
#109=EDGE_LOOP('',(#148,#149));
#110=AXIS2_PLACEMENT_3D('',#150,#151,#152);
#111=EDGE_LOOP('',(#153,#154));
#112=AXIS2_PLACEMENT_3D('',#155,#156,#157);
#113=ORIENTED_EDGE('',*,*,#158,.F.);
#114=ORIENTED_EDGE('',*,*,#159,.F.);
#115=ORIENTED_EDGE('',*,*,#160,.F.);
#116=ORIENTED_EDGE('',*,*,#161,.F.);
#117=CARTESIAN_POINT('',(0.0,-22.5,0.0));
#118=DIRECTION('',(0.0,-1.0,0.0));
#119=DIRECTION('',(1.0,0.0,0.0));
#120=ORIENTED_EDGE('',*,*,#162,.F.);
#121=ORIENTED_EDGE('',*,*,#163,.F.);
#122=ORIENTED_EDGE('',*,*,#164,.F.);
#123=ORIENTED_EDGE('',*,*,#165,.F.);
#124=CARTESIAN_POINT('',(0.0,-55.0,0.0));
#125=DIRECTION('',(0.0,-1.0,0.0));
#126=DIRECTION('',(1.0,0.0,0.0));
#127=ORIENTED_EDGE('',*,*,#162,.T.);
#128=ORIENTED_EDGE('',*,*,#166,.F.);
#129=ORIENTED_EDGE('',*,*,#164,.T.);
#130=ORIENTED_EDGE('',*,*,#167,.F.);
#131=CARTESIAN_POINT('',(0.0,-55.0,0.0));
#132=DIRECTION('',(0.0,-1.0,0.0));
#133=DIRECTION('',(1.0,0.0,0.0));
#134=ORIENTED_EDGE('',*,*,#167,.T.);
#135=ORIENTED_EDGE('',*,*,#163,.T.);
#136=CARTESIAN_POINT('',(0.0,-65.0,0.0));
#137=DIRECTION('',(0.0,-1.0,0.0));
#138=DIRECTION('',(-1.0,0.0,0.0));
#139=ORIENTED_EDGE('',*,*,#158,.T.);
#140=ORIENTED_EDGE('',*,*,#168,.F.);
#141=ORIENTED_EDGE('',*,*,#160,.T.);
#142=ORIENTED_EDGE('',*,*,#169,.F.);
#143=CARTESIAN_POINT('',(0.0,-22.5,0.0));
#144=DIRECTION('',(0.0,-1.0,0.0));
#145=DIRECTION('',(1.0,0.0,0.0));
#146=ORIENTED_EDGE('',*,*,#165,.T.);
#147=ORIENTED_EDGE('',*,*,#166,.T.);
#148=ORIENTED_EDGE('',*,*,#169,.T.);
#149=ORIENTED_EDGE('',*,*,#159,.T.);
#150=CARTESIAN_POINT('',(0.0,-45.0,0.0));
#151=DIRECTION('',(0.0,-1.0,0.0));
#152=DIRECTION('',(-1.0,0.0,0.0));
#153=ORIENTED_EDGE('',*,*,#161,.T.);
#154=ORIENTED_EDGE('',*,*,#168,.T.);
#155=CARTESIAN_POINT('',(0.0,0.0,0.0));
#156=DIRECTION('',(0.0,1.0,0.0));
#157=DIRECTION('',(1.0,0.0,0.0));
#158=EDGE_CURVE('',#170,#171,#172,.T.);
#159=EDGE_CURVE('',#173,#170,#174,.T.);
#160=EDGE_CURVE('',#175,#173,#176,.T.);
#161=EDGE_CURVE('',#171,#175,#177,.T.);
#162=EDGE_CURVE('',#178,#179,#180,.T.);
#163=EDGE_CURVE('',#181,#178,#182,.T.);
#164=EDGE_CURVE('',#183,#181,#184,.T.);
#165=EDGE_CURVE('',#179,#183,#185,.T.);
#166=EDGE_CURVE('',#183,#179,#186,.T.);
#167=EDGE_CURVE('',#178,#181,#187,.T.);
#168=EDGE_CURVE('',#175,#171,#188,.T.);
#169=EDGE_CURVE('',#170,#173,#189,.T.);
#170=VERTEX_POINT('',#190);
#171=VERTEX_POINT('',#191);
#172=LINE('',#192,#193);
#173=VERTEX_POINT('',#194);
#174=CIRCLE('',#195,3.25);
#175=VERTEX_POINT('',#196);
#176=LINE('',#197,#198);
#177=CIRCLE('',#199,3.25);
#178=VERTEX_POINT('',#200);
#179=VERTEX_POINT('',#201);
#180=LINE('',#202,#203);
#181=VERTEX_POINT('',#204);
#182=CIRCLE('',#205,1.75);
#183=VERTEX_POINT('',#206);
#184=LINE('',#207,#208);
#185=CIRCLE('',#209,1.75);
#186=CIRCLE('',#210,1.75);
#187=CIRCLE('',#211,1.75);
#188=CIRCLE('',#212,3.25);
#189=CIRCLE('',#213,3.25);
#190=CARTESIAN_POINT('',(3.25,-45.0,0.0));
#191=CARTESIAN_POINT('',(3.25,0.0,0.0));
#192=CARTESIAN_POINT('',(3.25,-22.5,3.97997064992273E-016));
#193=VECTOR('',#214,1.0);
#194=CARTESIAN_POINT('',(-3.25,-45.0,-3.97997064992273E-016));
#195=AXIS2_PLACEMENT_3D('',#215,#216,#217);
#196=CARTESIAN_POINT('',(-3.25,0.0,-3.97997064992273E-016));
#197=CARTESIAN_POINT('',(-3.25,-22.5,-3.97997064992273E-016));
#198=VECTOR('',#218,1.0);
#199=AXIS2_PLACEMENT_3D('',#219,#220,#221);
#200=CARTESIAN_POINT('',(1.75,-65.0,0.0));
#201=CARTESIAN_POINT('',(1.75,-45.0,0.0));
#202=CARTESIAN_POINT('',(1.75,-55.0,2.14306111918916E-016));
#203=VECTOR('',#222,1.0);
#204=CARTESIAN_POINT('',(-1.75,-65.0,-2.14306111918916E-016));
#205=AXIS2_PLACEMENT_3D('',#223,#224,#225);
#206=CARTESIAN_POINT('',(-1.75,-45.0,-2.14306111918916E-016));
#207=CARTESIAN_POINT('',(-1.75,-55.0,-2.14306111918916E-016));
#208=VECTOR('',#226,1.0);
#209=AXIS2_PLACEMENT_3D('',#227,#228,#229);
#210=AXIS2_PLACEMENT_3D('',#230,#231,#232);
#211=AXIS2_PLACEMENT_3D('',#233,#234,#235);
#212=AXIS2_PLACEMENT_3D('',#236,#237,#238);
#213=AXIS2_PLACEMENT_3D('',#239,#240,#241);
#214=DIRECTION('',(0.0,1.0,0.0));
#215=CARTESIAN_POINT('',(0.0,-45.0,0.0));
#216=DIRECTION('',(0.0,-1.0,0.0));
#217=DIRECTION('',(1.0,0.0,0.0));
#218=DIRECTION('',(0.0,-1.0,0.0));
#219=CARTESIAN_POINT('',(0.0,0.0,0.0));
#220=DIRECTION('',(0.0,1.0,0.0));
#221=DIRECTION('',(1.0,0.0,0.0));
#222=DIRECTION('',(0.0,1.0,0.0));
#223=CARTESIAN_POINT('',(0.0,-65.0,0.0));
#224=DIRECTION('',(0.0,-1.0,0.0));
#225=DIRECTION('',(1.0,0.0,0.0));
#226=DIRECTION('',(0.0,-1.0,0.0));
#227=CARTESIAN_POINT('',(0.0,-45.0,0.0));
#228=DIRECTION('',(0.0,1.0,0.0));
#229=DIRECTION('',(1.0,0.0,0.0));
#230=CARTESIAN_POINT('',(0.0,-45.0,0.0));
#231=DIRECTION('',(0.0,1.0,0.0));
#232=DIRECTION('',(1.0,0.0,0.0));
#233=CARTESIAN_POINT('',(0.0,-65.0,0.0));
#234=DIRECTION('',(0.0,-1.0,0.0));
#235=DIRECTION('',(1.0,0.0,0.0));
#236=CARTESIAN_POINT('',(0.0,0.0,0.0));
#237=DIRECTION('',(0.0,1.0,0.0));
#238=DIRECTION('',(1.0,0.0,0.0));
#239=CARTESIAN_POINT('',(0.0,-45.0,0.0));
#240=DIRECTION('',(0.0,-1.0,0.0));
#241=DIRECTION('',(1.0,0.0,0.0));
ENDSEC;
END-ISO-10303-21;
