ISO-10303-21;
HEADER;
FILE_DESCRIPTION(('STEP AP203'),'1');
FILE_NAME(' ','  ',('TraceParts'),('TraceParts S.A.'),'XStep 1.0',' ',' ');
FILE_SCHEMA(('CONFIG_CONTROL_DESIGN'));
ENDSEC;
DATA;
#1=DESIGN_CONTEXT('',#27,'design');
#2=APPLICATION_PROTOCOL_DEFINITION('INTERNATIONAL STANDARD','config_control_design',1994,#27);
#3=PRODUCT_CATEGORY_RELATIONSHIP('NONE','NONE',#28,#29);
#4=DATE_AND_TIME(#30,#31);
#5=DATE_TIME_ROLE('creation_date');
#6=DATE_TIME_ROLE('classification_date');
#7=PERSON_AND_ORGANIZATION_ROLE('creator');
#8=PERSON_AND_ORGANIZATION_ROLE('design_supplier');
#9=PERSON_AND_ORGANIZATION_ROLE('classification_officer');
#10=PERSON_AND_ORGANIZATION_ROLE('design_owner');
#11=APPROVAL_PERSON_ORGANIZATION(#32,#33,#34);
#12=APPROVAL_DATE_TIME(#4,#33);
#13=CC_DESIGN_APPROVAL(#33,(#35,#36,#37));
#14=CC_DESIGN_DATE_AND_TIME_ASSIGNMENT(#4,#5,(#37));
#15=CC_DESIGN_DATE_AND_TIME_ASSIGNMENT(#4,#6,(#35));
#16=CC_DESIGN_PERSON_AND_ORGANIZATION_ASSIGNMENT(#32,#10,(#38));
#17=CC_DESIGN_PERSON_AND_ORGANIZATION_ASSIGNMENT(#32,#7,(#37));
#18=CC_DESIGN_PERSON_AND_ORGANIZATION_ASSIGNMENT(#32,#7,(#36));
#19=CC_DESIGN_PERSON_AND_ORGANIZATION_ASSIGNMENT(#32,#8,(#36));
#20=CC_DESIGN_SECURITY_CLASSIFICATION(#35,(#36));
#21=CC_DESIGN_PERSON_AND_ORGANIZATION_ASSIGNMENT(#32,#9,(#35));
#22=SHAPE_DEFINITION_REPRESENTATION(#39,#40);
#23= (GEOMETRIC_REPRESENTATION_CONTEXT(3)GLOBAL_UNCERTAINTY_ASSIGNED_CONTEXT((#43))GLOBAL_UNIT_ASSIGNED_CONTEXT((#45,#46,#47))REPRESENTATION_CONTEXT('NONE','WORKSPACE'));
#27=APPLICATION_CONTEXT('CONFIGURATION CONTROLLED 3D DESIGNS OF MECHANICAL PARTS AND ASSEMBLIES');
#28=PRODUCT_CATEGORY('part','NONE');
#29=PRODUCT_RELATED_PRODUCT_CATEGORY('detail',' ',(#38));
#30=CALENDAR_DATE(2011,23,1);
#31=LOCAL_TIME(9,7,48.0,#49);
#32=PERSON_AND_ORGANIZATION(#50,#51);
#33=APPROVAL(#52,'SOLID MODEL');
#34=APPROVAL_ROLE('APPROVED');
#35=SECURITY_CLASSIFICATION('','',#53);
#36=PRODUCT_DEFINITION_FORMATION_WITH_SPECIFIED_SOURCE(' ','NONE',#38,.NOT_KNOWN.);
#37=PRODUCT_DEFINITION('NONE','NONE',#36,#1);
#38=PRODUCT('1','1','PART-1-DESC',(#54));
#39=PRODUCT_DEFINITION_SHAPE('NONE','NONE',#37);
#40=ADVANCED_BREP_SHAPE_REPRESENTATION('1',(#55,#56),#23);
#43=UNCERTAINTY_MEASURE_WITH_UNIT(LENGTH_MEASURE(1.0E-006),#45,'','');
#45= (CONVERSION_BASED_UNIT('MILLIMETRE',#59)LENGTH_UNIT()NAMED_UNIT(#62));
#46= (NAMED_UNIT(#64)PLANE_ANGLE_UNIT()SI_UNIT($,.RADIAN.));
#47= (NAMED_UNIT(#64)SOLID_ANGLE_UNIT()SI_UNIT($,.STERADIAN.));
#49=COORDINATED_UNIVERSAL_TIME_OFFSET(1,0,.AHEAD.);
#50=PERSON('','UNSPECIFIED',$,$,$,$);
#51=ORGANIZATION('UNSPECIFIED','UNSPECIFIED','UNSPECIFIED');
#52=APPROVAL_STATUS('approved');
#53=SECURITY_CLASSIFICATION_LEVEL('unclassified');
#54=MECHANICAL_CONTEXT('',#27,'mechanical');
#55=MANIFOLD_SOLID_BREP('1',#70);
#56=AXIS2_PLACEMENT_3D('',#71,#72,#73);
#59=LENGTH_MEASURE_WITH_UNIT(LENGTH_MEASURE(1.0),#74);
#62=DIMENSIONAL_EXPONENTS(1.0,0.0,0.0,0.0,0.0,0.0,0.0);
#64=DIMENSIONAL_EXPONENTS(0.0,0.0,0.0,0.0,0.0,0.0,0.0);
#70=CLOSED_SHELL('',(#75,#76,#77,#78,#79,#80,#81,#82,#83,#84));
#71=CARTESIAN_POINT('',(0.0,0.0,0.0));
#72=DIRECTION('',(0.0,0.0,1.0));
#73=DIRECTION('',(1.0,0.0,0.0));
#74= (NAMED_UNIT(#62)LENGTH_UNIT()SI_UNIT(.MILLI.,.METRE.));
#75=ADVANCED_FACE('',(#86),#87,.T.);
#76=ADVANCED_FACE('',(#88),#89,.T.);
#77=ADVANCED_FACE('',(#90),#91,.T.);
#78=ADVANCED_FACE('',(#92),#93,.T.);
#79=ADVANCED_FACE('',(#94),#95,.T.);
#80=ADVANCED_FACE('',(#96),#97,.T.);
#81=ADVANCED_FACE('',(#98,#99),#100,.T.);
#82=ADVANCED_FACE('',(#101),#102,.T.);
#83=ADVANCED_FACE('',(#103,#104),#105,.T.);
#84=ADVANCED_FACE('',(#106),#107,.T.);
#86=FACE_OUTER_BOUND('',#108,.T.);
#87=CYLINDRICAL_SURFACE('',#109,3.25);
#88=FACE_OUTER_BOUND('',#110,.T.);
#89=CYLINDRICAL_SURFACE('',#111,3.2);
#90=FACE_OUTER_BOUND('',#112,.T.);
#91=CYLINDRICAL_SURFACE('',#113,1.75);
#92=FACE_OUTER_BOUND('',#114,.T.);
#93=CYLINDRICAL_SURFACE('',#115,1.75);
#94=FACE_OUTER_BOUND('',#116,.T.);
#95=PLANE('',#117);
#96=FACE_OUTER_BOUND('',#118,.T.);
#97=CYLINDRICAL_SURFACE('',#119,3.2);
#98=FACE_BOUND('',#120,.T.);
#99=FACE_OUTER_BOUND('',#121,.T.);
#100=PLANE('',#122);
#101=FACE_OUTER_BOUND('',#123,.T.);
#102=CYLINDRICAL_SURFACE('',#124,3.25);
#103=FACE_BOUND('',#125,.T.);
#104=FACE_OUTER_BOUND('',#126,.T.);
#105=PLANE('',#127);
#106=FACE_OUTER_BOUND('',#128,.T.);
#107=PLANE('',#129);
#108=EDGE_LOOP('',(#130,#131,#132,#133));
#109=AXIS2_PLACEMENT_3D('',#134,#135,#136);
#110=EDGE_LOOP('',(#137,#138,#139,#140));
#111=AXIS2_PLACEMENT_3D('',#141,#142,#143);
#112=EDGE_LOOP('',(#144,#145,#146,#147));
#113=AXIS2_PLACEMENT_3D('',#148,#149,#150);
#114=EDGE_LOOP('',(#151,#152,#153,#154));
#115=AXIS2_PLACEMENT_3D('',#155,#156,#157);
#116=EDGE_LOOP('',(#158,#159));
#117=AXIS2_PLACEMENT_3D('',#160,#161,#162);
#118=EDGE_LOOP('',(#163,#164,#165,#166));
#119=AXIS2_PLACEMENT_3D('',#167,#168,#169);
#120=EDGE_LOOP('',(#170,#171));
#121=EDGE_LOOP('',(#172,#173));
#122=AXIS2_PLACEMENT_3D('',#174,#175,#176);
#123=EDGE_LOOP('',(#177,#178,#179,#180));
#124=AXIS2_PLACEMENT_3D('',#181,#182,#183);
#125=EDGE_LOOP('',(#184,#185));
#126=EDGE_LOOP('',(#186,#187));
#127=AXIS2_PLACEMENT_3D('',#188,#189,#190);
#128=EDGE_LOOP('',(#191,#192));
#129=AXIS2_PLACEMENT_3D('',#193,#194,#195);
#130=ORIENTED_EDGE('',*,*,#196,.F.);
#131=ORIENTED_EDGE('',*,*,#197,.F.);
#132=ORIENTED_EDGE('',*,*,#198,.F.);
#133=ORIENTED_EDGE('',*,*,#199,.F.);
#134=CARTESIAN_POINT('',(0.0,-7.5,0.0));
#135=DIRECTION('',(0.0,-1.0,0.0));
#136=DIRECTION('',(1.0,0.0,0.0));
#137=ORIENTED_EDGE('',*,*,#200,.F.);
#138=ORIENTED_EDGE('',*,*,#201,.F.);
#139=ORIENTED_EDGE('',*,*,#202,.F.);
#140=ORIENTED_EDGE('',*,*,#203,.F.);
#141=CARTESIAN_POINT('',(0.0,-15.5,0.0));
#142=DIRECTION('',(0.0,-1.0,0.0));
#143=DIRECTION('',(1.0,0.0,0.0));
#144=ORIENTED_EDGE('',*,*,#204,.F.);
#145=ORIENTED_EDGE('',*,*,#205,.F.);
#146=ORIENTED_EDGE('',*,*,#206,.F.);
#147=ORIENTED_EDGE('',*,*,#207,.F.);
#148=CARTESIAN_POINT('',(-0.875,-26.0,0.0));
#149=DIRECTION('',(0.0,-1.0,0.0));
#150=DIRECTION('',(1.0,0.0,0.0));
#151=ORIENTED_EDGE('',*,*,#204,.T.);
#152=ORIENTED_EDGE('',*,*,#208,.F.);
#153=ORIENTED_EDGE('',*,*,#206,.T.);
#154=ORIENTED_EDGE('',*,*,#209,.F.);
#155=CARTESIAN_POINT('',(-0.875,-26.0,0.0));
#156=DIRECTION('',(0.0,-1.0,0.0));
#157=DIRECTION('',(1.0,0.0,0.0));
#158=ORIENTED_EDGE('',*,*,#209,.T.);
#159=ORIENTED_EDGE('',*,*,#205,.T.);
#160=CARTESIAN_POINT('',(-0.875,-36.0,0.0));
#161=DIRECTION('',(0.0,-1.0,0.0));
#162=DIRECTION('',(-1.0,0.0,0.0));
#163=ORIENTED_EDGE('',*,*,#200,.T.);
#164=ORIENTED_EDGE('',*,*,#210,.F.);
#165=ORIENTED_EDGE('',*,*,#202,.T.);
#166=ORIENTED_EDGE('',*,*,#211,.F.);
#167=CARTESIAN_POINT('',(0.0,-15.5,0.0));
#168=DIRECTION('',(0.0,-1.0,0.0));
#169=DIRECTION('',(1.0,0.0,0.0));
#170=ORIENTED_EDGE('',*,*,#207,.T.);
#171=ORIENTED_EDGE('',*,*,#208,.T.);
#172=ORIENTED_EDGE('',*,*,#211,.T.);
#173=ORIENTED_EDGE('',*,*,#201,.T.);
#174=CARTESIAN_POINT('',(0.0,-16.0,0.0));
#175=DIRECTION('',(0.0,-1.0,0.0));
#176=DIRECTION('',(-1.0,0.0,0.0));
#177=ORIENTED_EDGE('',*,*,#196,.T.);
#178=ORIENTED_EDGE('',*,*,#212,.F.);
#179=ORIENTED_EDGE('',*,*,#198,.T.);
#180=ORIENTED_EDGE('',*,*,#213,.F.);
#181=CARTESIAN_POINT('',(0.0,-7.5,0.0));
#182=DIRECTION('',(0.0,-1.0,0.0));
#183=DIRECTION('',(1.0,0.0,0.0));
#184=ORIENTED_EDGE('',*,*,#203,.T.);
#185=ORIENTED_EDGE('',*,*,#210,.T.);
#186=ORIENTED_EDGE('',*,*,#213,.T.);
#187=ORIENTED_EDGE('',*,*,#197,.T.);
#188=CARTESIAN_POINT('',(0.0,-15.0,0.0));
#189=DIRECTION('',(0.0,-1.0,0.0));
#190=DIRECTION('',(-1.0,0.0,0.0));
#191=ORIENTED_EDGE('',*,*,#199,.T.);
#192=ORIENTED_EDGE('',*,*,#212,.T.);
#193=CARTESIAN_POINT('',(0.0,0.0,0.0));
#194=DIRECTION('',(0.0,1.0,0.0));
#195=DIRECTION('',(1.0,0.0,0.0));
#196=EDGE_CURVE('',#214,#215,#216,.T.);
#197=EDGE_CURVE('',#217,#214,#218,.T.);
#198=EDGE_CURVE('',#219,#217,#220,.T.);
#199=EDGE_CURVE('',#215,#219,#221,.T.);
#200=EDGE_CURVE('',#222,#223,#224,.T.);
#201=EDGE_CURVE('',#225,#222,#226,.T.);
#202=EDGE_CURVE('',#227,#225,#228,.T.);
#203=EDGE_CURVE('',#223,#227,#229,.T.);
#204=EDGE_CURVE('',#230,#231,#232,.T.);
#205=EDGE_CURVE('',#233,#230,#234,.T.);
#206=EDGE_CURVE('',#235,#233,#236,.T.);
#207=EDGE_CURVE('',#231,#235,#237,.T.);
#208=EDGE_CURVE('',#235,#231,#238,.T.);
#209=EDGE_CURVE('',#230,#233,#239,.T.);
#210=EDGE_CURVE('',#227,#223,#240,.T.);
#211=EDGE_CURVE('',#222,#225,#241,.T.);
#212=EDGE_CURVE('',#219,#215,#242,.T.);
#213=EDGE_CURVE('',#214,#217,#243,.T.);
#214=VERTEX_POINT('',#244);
#215=VERTEX_POINT('',#245);
#216=LINE('',#246,#247);
#217=VERTEX_POINT('',#248);
#218=CIRCLE('',#249,3.25);
#219=VERTEX_POINT('',#250);
#220=LINE('',#251,#252);
#221=CIRCLE('',#253,3.25);
#222=VERTEX_POINT('',#254);
#223=VERTEX_POINT('',#255);
#224=LINE('',#256,#257);
#225=VERTEX_POINT('',#258);
#226=CIRCLE('',#259,3.2);
#227=VERTEX_POINT('',#260);
#228=LINE('',#261,#262);
#229=CIRCLE('',#263,3.2);
#230=VERTEX_POINT('',#264);
#231=VERTEX_POINT('',#265);
#232=LINE('',#266,#267);
#233=VERTEX_POINT('',#268);
#234=CIRCLE('',#269,1.75);
#235=VERTEX_POINT('',#270);
#236=LINE('',#271,#272);
#237=CIRCLE('',#273,1.75);
#238=CIRCLE('',#274,1.75);
#239=CIRCLE('',#275,1.75);
#240=CIRCLE('',#276,3.2);
#241=CIRCLE('',#277,3.2);
#242=CIRCLE('',#278,3.25);
#243=CIRCLE('',#279,3.25);
#244=CARTESIAN_POINT('',(3.25,-15.0,0.0));
#245=CARTESIAN_POINT('',(3.25,0.0,0.0));
#246=CARTESIAN_POINT('',(3.25,-7.5,3.97997064992273E-016));
#247=VECTOR('',#280,1.0);
#248=CARTESIAN_POINT('',(-3.25,-15.0,-3.97997064992273E-016));
#249=AXIS2_PLACEMENT_3D('',#281,#282,#283);
#250=CARTESIAN_POINT('',(-3.25,0.0,-3.97997064992273E-016));
#251=CARTESIAN_POINT('',(-3.25,-7.5,-3.97997064992273E-016));
#252=VECTOR('',#284,1.0);
#253=AXIS2_PLACEMENT_3D('',#285,#286,#287);
#254=CARTESIAN_POINT('',(3.2,-16.0,0.0));
#255=CARTESIAN_POINT('',(3.2,-15.0,0.0));
#256=CARTESIAN_POINT('',(3.2,-15.5,3.91874033223161E-016));
#257=VECTOR('',#288,1.0);
#258=CARTESIAN_POINT('',(-3.2,-16.0,-3.91874033223161E-016));
#259=AXIS2_PLACEMENT_3D('',#289,#290,#291);
#260=CARTESIAN_POINT('',(-3.2,-15.0,-3.91874033223161E-016));
#261=CARTESIAN_POINT('',(-3.2,-15.5,-3.91874033223161E-016));
#262=VECTOR('',#292,1.0);
#263=AXIS2_PLACEMENT_3D('',#293,#294,#295);
#264=CARTESIAN_POINT('',(0.875,-36.0,0.0));
#265=CARTESIAN_POINT('',(0.875,-16.0,0.0));
#266=CARTESIAN_POINT('',(0.875,-26.0,2.14306111918916E-016));
#267=VECTOR('',#296,1.0);
#268=CARTESIAN_POINT('',(-2.625,-36.0,-2.14306111918916E-016));
#269=AXIS2_PLACEMENT_3D('',#297,#298,#299);
#270=CARTESIAN_POINT('',(-2.625,-16.0,-2.14306111918916E-016));
#271=CARTESIAN_POINT('',(-2.625,-26.0,-2.14306111918916E-016));
#272=VECTOR('',#300,1.0);
#273=AXIS2_PLACEMENT_3D('',#301,#302,#303);
#274=AXIS2_PLACEMENT_3D('',#304,#305,#306);
#275=AXIS2_PLACEMENT_3D('',#307,#308,#309);
#276=AXIS2_PLACEMENT_3D('',#310,#311,#312);
#277=AXIS2_PLACEMENT_3D('',#313,#314,#315);
#278=AXIS2_PLACEMENT_3D('',#316,#317,#318);
#279=AXIS2_PLACEMENT_3D('',#319,#320,#321);
#280=DIRECTION('',(0.0,1.0,0.0));
#281=CARTESIAN_POINT('',(0.0,-15.0,0.0));
#282=DIRECTION('',(0.0,-1.0,0.0));
#283=DIRECTION('',(1.0,0.0,0.0));
#284=DIRECTION('',(0.0,-1.0,0.0));
#285=CARTESIAN_POINT('',(0.0,0.0,0.0));
#286=DIRECTION('',(0.0,1.0,0.0));
#287=DIRECTION('',(1.0,0.0,0.0));
#288=DIRECTION('',(0.0,1.0,0.0));
#289=CARTESIAN_POINT('',(0.0,-16.0,0.0));
#290=DIRECTION('',(0.0,-1.0,0.0));
#291=DIRECTION('',(1.0,0.0,0.0));
#292=DIRECTION('',(0.0,-1.0,0.0));
#293=CARTESIAN_POINT('',(0.0,-15.0,0.0));
#294=DIRECTION('',(0.0,1.0,0.0));
#295=DIRECTION('',(1.0,0.0,0.0));
#296=DIRECTION('',(0.0,1.0,0.0));
#297=CARTESIAN_POINT('',(-0.875,-36.0,0.0));
#298=DIRECTION('',(0.0,-1.0,0.0));
#299=DIRECTION('',(1.0,0.0,0.0));
#300=DIRECTION('',(0.0,-1.0,0.0));
#301=CARTESIAN_POINT('',(-0.875,-16.0,0.0));
#302=DIRECTION('',(0.0,1.0,0.0));
#303=DIRECTION('',(1.0,0.0,0.0));
#304=CARTESIAN_POINT('',(-0.875,-16.0,0.0));
#305=DIRECTION('',(0.0,1.0,0.0));
#306=DIRECTION('',(1.0,0.0,0.0));
#307=CARTESIAN_POINT('',(-0.875,-36.0,0.0));
#308=DIRECTION('',(0.0,-1.0,0.0));
#309=DIRECTION('',(1.0,0.0,0.0));
#310=CARTESIAN_POINT('',(0.0,-15.0,0.0));
#311=DIRECTION('',(0.0,1.0,0.0));
#312=DIRECTION('',(1.0,0.0,0.0));
#313=CARTESIAN_POINT('',(0.0,-16.0,0.0));
#314=DIRECTION('',(0.0,-1.0,0.0));
#315=DIRECTION('',(1.0,0.0,0.0));
#316=CARTESIAN_POINT('',(0.0,0.0,0.0));
#317=DIRECTION('',(0.0,1.0,0.0));
#318=DIRECTION('',(1.0,0.0,0.0));
#319=CARTESIAN_POINT('',(0.0,-15.0,0.0));
#320=DIRECTION('',(0.0,-1.0,0.0));
#321=DIRECTION('',(1.0,0.0,0.0));
ENDSEC;
END-ISO-10303-21;
