 PTC IGES file: D:\Tpo v2\SharedFS\Outgoing\dw-ad-425-065.igs           S      1
1H,,1H;,7HMODEL10,45HD:\Tpo v2\SharedFS\Outgoing\dw-ad-425-065.igs,     G      1
37H by Parametric Technology Corporation,7H2010230,32,38,7,38,15,       G      2
7HMODEL10,1.,2,2HMM,32768,0.5,15H20110323.112746,  0.001,10.0004,,      G      3
7HUnknown,10,0,15H20110323.112746;                                      G      4
     124       1       1       1       0       0       0       001000000D      1
     124       0       0       1       0                   XFORM       1D      2
     100       2       1       1       0       0       1       001010000D      3
     100       0       0       1       0                     ARC       1D      4
     124       3       1       1       0       0       0       001000000D      5
     124       0       0       1       0                   XFORM       2D      6
     100       4       1       1       0       0       5       001010000D      7
     100       0       0       1       0                     ARC       2D      8
     124       5       1       1       0       0       0       001000000D      9
     124       0       0       1       0                   XFORM       3D     10
     100       6       1       1       0       0       9       001010000D     11
     100       0       0       1       0                     ARC       3D     12
     124       7       1       1       0       0       0       001000000D     13
     124       0       0       1       0                   XFORM       4D     14
     100       8       1       1       0       0      13       001010000D     15
     100       0       0       1       0                     ARC       4D     16
     110       9       1       1       0       0       0       001010000D     17
     110       0       0       1       0                    LINE       1D     18
     110      10       1       1       0       0       0       001010000D     19
     110       0       0       1       0                    LINE       2D     20
     124      11       1       1       0       0       0       001000000D     21
     124       0       0       1       0                   XFORM       5D     22
     100      12       1       1       0       0      21       001010000D     23
     100       0       0       1       0                     ARC       5D     24
     124      13       1       1       0       0       0       001000000D     25
     124       0       0       1       0                   XFORM       6D     26
     100      14       1       1       0       0      25       001010000D     27
     100       0       0       1       0                     ARC       6D     28
     110      15       1       1       0       0       0       001010000D     29
     110       0       0       1       0                    LINE       3D     30
     110      16       1       1       0       0       0       001010000D     31
     110       0       0       1       0                    LINE       4D     32
     124      17       1       1       0       0       0       001000000D     33
     124       0       0       1       0                   XFORM       7D     34
     100      18       1       1       0       0      33       001010000D     35
     100       0       0       1       0                     ARC       7D     36
     124      19       1       1       0       0       0       001000000D     37
     124       0       0       1       0                   XFORM       8D     38
     100      20       1       1       0       0      37       001010000D     39
     100       0       0       1       0                     ARC       8D     40
     124      21       1       1       0       0       0       001000000D     41
     124       0       0       1       0                   XFORM       9D     42
     100      22       1       1       0       0      41       001010000D     43
     100       0       0       1       0                     ARC       9D     44
     124      23       1       1       0       0       0       001000000D     45
     124       0       0       1       0                   XFORM      10D     46
     100      24       1       1       0       0      45       001010000D     47
     100       0       0       1       0                     ARC      10D     48
     110      25       1       1       0       0       0       001010000D     49
     110       0       0       1       0                    LINE       5D     50
     110      26       1       1       0       0       0       001010000D     51
     110       0       0       1       0                    LINE       6D     52
     124      27       1       1       0       0       0       001000000D     53
     124       0       0       1       0                   XFORM      11D     54
     100      28       1       1       0       0      53       001010000D     55
     100       0       0       1       0                     ARC      11D     56
     124      29       1       1       0       0       0       001000000D     57
     124       0       0       1       0                   XFORM      12D     58
     100      30       1       1       0       0      57       001010000D     59
     100       0       0       1       0                     ARC      12D     60
     502      31       1       1       0       0       0       001010000D     61
     502       0       0       4       1                  VERTEX       1D     62
     504      35       1       1       0       0       0       000010001D     63
     504       0       0       4       1                    EDGE       1D     64
     114      39       1       1       0       0       0       001010000D     65
     114       0       0      14       0                  SPLSRF       1D     66
     508      53       1       1       0       0       0       001010000D     67
     508       0       0       1       1                EDGELOOP       1D     68
     508      54       1       1       0       0       0       001010000D     69
     508       0       0       1       1                EDGELOOP       2D     70
     510      55       1       1       0       0       0       000010000D     71
     510       0       0       1       1                    FACE       1D     72
     110      56       1       1       0       0       0       001010000D     73
     110       0       0       1       0                    LINE       7D     74
     110      57       1       1       0       0       0       001010000D     75
     110       0       0       1       0                    LINE       8D     76
     120      58       1       1       0       0       0       001010000D     77
     120       0       0       1       0                    SREV       1D     78
     508      59       1       1       0       0       0       001010000D     79
     508       0       0       1       1                EDGELOOP       3D     80
     510      60       1       1       0       0       0       000010000D     81
     510       0       0       1       1                    FACE       2D     82
     110      61       1       1       0       0       0       001010000D     83
     110       0       0       1       0                    LINE       9D     84
     110      62       1       1       0       0       0       001010000D     85
     110       0       0       1       0                    LINE      10D     86
     120      63       1       1       0       0       0       001010000D     87
     120       0       0       1       0                    SREV       2D     88
     508      64       1       1       0       0       0       001010000D     89
     508       0       0       1       1                EDGELOOP       4D     90
     510      65       1       1       0       0       0       000010000D     91
     510       0       0       1       1                    FACE       3D     92
     114      66       1       1       0       0       0       001010000D     93
     114       0       0      14       0                  SPLSRF       2D     94
     508      80       1       1       0       0       0       001010000D     95
     508       0       0       1       1                EDGELOOP       5D     96
     510      81       1       1       0       0       0       000010000D     97
     510       0       0       1       1                    FACE       4D     98
     110      82       1       1       0       0       0       001010000D     99
     110       0       0       1       0                    LINE      11D    100
     110      83       1       1       0       0       0       001010000D    101
     110       0       0       1       0                    LINE      12D    102
     120      84       1       1       0       0       0       001010000D    103
     120       0       0       1       0                    SREV       3D    104
     508      85       1       1       0       0       0       001010000D    105
     508       0       0       1       1                EDGELOOP       6D    106
     510      86       1       1       0       0       0       000010000D    107
     510       0       0       1       1                    FACE       5D    108
     110      87       1       1       0       0       0       001010000D    109
     110       0       0       1       0                    LINE      13D    110
     110      88       1       1       0       0       0       001010000D    111
     110       0       0       1       0                    LINE      14D    112
     120      89       1       1       0       0       0       001010000D    113
     120       0       0       1       0                    SREV       4D    114
     508      90       1       1       0       0       0       001010000D    115
     508       0       0       1       1                EDGELOOP       7D    116
     510      91       1       1       0       0       0       000010000D    117
     510       0       0       1       1                    FACE       6D    118
     114      92       1       1       0       0       0       001010000D    119
     114       0       0      14       0                  SPLSRF       3D    120
     508     106       1       1       0       0       0       001010000D    121
     508       0       0       1       1                EDGELOOP       8D    122
     508     107       1       1       0       0       0       001010000D    123
     508       0       0       1       1                EDGELOOP       9D    124
     510     108       1       1       0       0       0       000010000D    125
     510       0       0       1       1                    FACE       7D    126
     110     109       1       1       0       0       0       001010000D    127
     110       0       0       1       0                    LINE      15D    128
     110     110       1       1       0       0       0       001010000D    129
     110       0       0       1       0                    LINE      16D    130
     120     111       1       1       0       0       0       001010000D    131
     120       0       0       1       0                    SREV       5D    132
     508     112       1       1       0       0       0       001010000D    133
     508       0       0       1       1                EDGELOOP      10D    134
     510     113       1       1       0       0       0       000010000D    135
     510       0       0       1       1                    FACE       8D    136
     110     114       1       1       0       0       0       001010000D    137
     110       0       0       1       0                    LINE      17D    138
     110     115       1       1       0       0       0       001010000D    139
     110       0       0       1       0                    LINE      18D    140
     120     116       1       1       0       0       0       001010000D    141
     120       0       0       1       0                    SREV       6D    142
     508     117       1       1       0       0       0       001010000D    143
     508       0       0       1       1                EDGELOOP      11D    144
     510     118       1       1       0       0       0       000010000D    145
     510       0       0       1       1                    FACE       9D    146
     114     119       1       1       0       0       0       001010000D    147
     114       0       0      13       0                  SPLSRF       4D    148
     508     132       1       1       0       0       0       001010000D    149
     508       0       0       1       1                EDGELOOP      12D    150
     510     133       1       1       0       0       0       000010000D    151
     510       0       0       1       1                    FACE      10D    152
     514     134       1       1       0       0       0       000010000D    153
     514       0       0       1       1                   SHELL       1D    154
     186     135       1       1       0       0       0       000000000D    155
     186       0       0       1       0                    MSBR       1D    156
124,1D0,0D0,0D0,0D0,0D0,0D0,1D0,-1.5D1,0D0,-1D0,0D0,0D0;               1P      1
100,0D0,0D0,0D0,3.25D0,0D0,-3.25D0,0D0;                                3P      2
124,-1D0,0D0,0D0,0D0,0D0,0D0,1D0,-1.5D1,0D0,1D0,0D0,0D0;               5P      3
100,0D0,0D0,0D0,3.25D0,0D0,-3.25D0,0D0;                                7P      4
124,1D0,0D0,0D0,0D0,0D0,0D0,1D0,-1.5D1,0D0,-1D0,0D0,0D0;               9P      5
100,0D0,0D0,0D0,3.2D0,0D0,-3.2D0,0D0;                                 11P      6
124,-1D0,0D0,0D0,0D0,0D0,0D0,1D0,-1.5D1,0D0,1D0,0D0,0D0;              13P      7
100,0D0,0D0,0D0,3.2D0,0D0,-3.2D0,0D0;                                 15P      8
110,3.25D0,-1.5D1,0D0,3.25D0,0D0,0D0;                                 17P      9
110,-3.25D0,-1.5D1,0D0,-3.25D0,0D0,0D0;                               19P     10
124,1D0,0D0,0D0,0D0,0D0,0D0,1D0,0D0,0D0,-1D0,0D0,0D0;                 21P     11
100,0D0,0D0,0D0,3.25D0,0D0,-3.25D0,0D0;                               23P     12
124,-1D0,0D0,0D0,0D0,0D0,0D0,1D0,0D0,0D0,1D0,0D0,0D0;                 25P     13
100,0D0,0D0,0D0,3.25D0,0D0,-3.25D0,0D0;                               27P     14
110,3.2D0,-1.6D1,0D0,3.2D0,-1.5D1,0D0;                                29P     15
110,-3.2D0,-1.6D1,0D0,-3.2D0,-1.5D1,0D0;                              31P     16
124,1D0,0D0,0D0,0D0,0D0,0D0,1D0,-1.6D1,0D0,-1D0,0D0,0D0;              33P     17
100,0D0,0D0,0D0,3.2D0,0D0,-3.2D0,0D0;                                 35P     18
124,-1D0,0D0,0D0,0D0,0D0,0D0,1D0,-1.6D1,0D0,1D0,0D0,0D0;              37P     19
100,0D0,0D0,0D0,3.2D0,0D0,-3.2D0,0D0;                                 39P     20
124,1D0,0D0,0D0,-8.75D-1,0D0,0D0,1D0,-1.6D1,0D0,-1D0,0D0,0D0;         41P     21
100,0D0,0D0,0D0,1.75D0,0D0,-1.75D0,0D0;                               43P     22
124,-1D0,0D0,0D0,-8.75D-1,0D0,0D0,1D0,-1.6D1,0D0,1D0,0D0,0D0;         45P     23
100,0D0,0D0,0D0,1.75D0,0D0,-1.75D0,0D0;                               47P     24
110,8.75D-1,-3.6D1,0D0,8.75D-1,-1.6D1,0D0;                            49P     25
110,-2.625D0,-3.6D1,0D0,-2.625D0,-1.6D1,0D0;                          51P     26
124,1D0,0D0,0D0,-8.75D-1,0D0,0D0,1D0,-3.6D1,0D0,-1D0,0D0,0D0;         53P     27
100,0D0,0D0,0D0,1.75D0,0D0,-1.75D0,0D0;                               55P     28
124,-1D0,0D0,0D0,-8.75D-1,0D0,0D0,1D0,-3.6D1,0D0,1D0,0D0,0D0;         57P     29
100,0D0,0D0,0D0,1.75D0,0D0,-1.75D0,0D0;                               59P     30
502,12,3.25D0,-1.5D1,0D0,-3.25D0,-1.5D1,0D0,3.25D0,0D0,0D0,           61P     31
-3.25D0,0D0,0D0,3.2D0,-1.6D1,0D0,-3.2D0,-1.6D1,0D0,3.2D0,-1.5D1,      61P     32
0D0,-3.2D0,-1.5D1,0D0,8.75D-1,-3.6D1,0D0,-2.625D0,-3.6D1,0D0,         61P     33
8.75D-1,-1.6D1,0D0,-2.625D0,-1.6D1,0D0;                               61P     34
504,18,3,61,1,61,2,7,61,2,61,1,23,61,3,61,4,27,61,4,61,3,17,61,       63P     35
1,61,3,19,61,2,61,4,35,61,5,61,6,39,61,6,61,5,11,61,7,61,8,15,        63P     36
61,8,61,7,29,61,5,61,7,31,61,6,61,8,55,61,9,61,10,59,61,10,61,9,      63P     37
43,61,11,61,12,47,61,12,61,11,49,61,9,61,11,51,61,10,61,12;           63P     38
114,3,1,1,1,-3.25D0,3.25D0,-3.252676792604D0,3.252676792604D0,        65P     39
-3.25D0,1D0,0D0,0D0,0D0,0D0,0D0,0D0,0D0,0D0,0D0,0D0,0D0,0D0,0D0,      65P     40
0D0,-1.5D1,0D0,0D0,0D0,0D0,0D0,0D0,0D0,0D0,0D0,0D0,0D0,0D0,0D0,       65P     41
0D0,0D0,3.252676792604D0,0D0,0D0,0D0,-1D0,0D0,0D0,0D0,0D0,0D0,        65P     42
0D0,0D0,0D0,0D0,0D0,0D0,0D0,0D0,0D0,0D0,0D0,0D0,0D0,0D0,0D0,0D0,      65P     43
0D0,0D0,0D0,0D0,0D0,0D0,0D0,0D0,0D0,0D0,0D0,0D0,0D0,0D0,0D0,0D0,      65P     44
0D0,0D0,0D0,0D0,0D0,0D0,0D0,0D0,0D0,0D0,0D0,0D0,0D0,0D0,0D0,0D0,      65P     45
0D0,0D0,0D0,0D0,0D0,0D0,0D0,0D0,0D0,0D0,0D0,0D0,0D0,0D0,0D0,0D0,      65P     46
0D0,0D0,0D0,0D0,0D0,0D0,0D0,0D0,0D0,0D0,0D0,0D0,0D0,0D0,0D0,0D0,      65P     47
0D0,0D0,0D0,0D0,0D0,0D0,0D0,0D0,0D0,0D0,0D0,0D0,0D0,0D0,0D0,0D0,      65P     48
0D0,0D0,0D0,0D0,0D0,0D0,0D0,0D0,0D0,0D0,0D0,0D0,0D0,0D0,0D0,0D0,      65P     49
0D0,0D0,0D0,0D0,0D0,0D0,0D0,0D0,0D0,0D0,0D0,0D0,0D0,0D0,0D0,0D0,      65P     50
0D0,0D0,0D0,0D0,0D0,0D0,0D0,0D0,0D0,0D0,0D0,0D0,0D0,0D0,0D0,0D0,      65P     51
0D0,0D0,0D0,0D0,0D0,0D0;                                              65P     52
508,2,0,63,1,1,0,0,63,2,1,0;                                          67P     53
508,2,0,63,9,0,0,0,63,10,0,0;                                         69P     54
510,65,2,0,67,69;                                                     71P     55
110,0D0,-1.5D1,0D0,0D0,-1.4D1,0D0;                                    73P     56
110,3.25D0,-1.5D1,0D0,3.25D0,0D0,0D0;                                 75P     57
120,73,75,0D0,3.141592653590D0;                                       77P     58
508,4,0,63,1,0,0,0,63,5,1,0,0,63,3,1,0,0,63,6,0,0;                    79P     59
510,77,1,0,79;                                                        81P     60
110,0D0,-1.5D1,0D0,0D0,-1.4D1,0D0;                                    83P     61
110,3.25D0,-1.5D1,0D0,3.25D0,0D0,0D0;                                 85P     62
120,83,85,3.141592653590D0,6.283185307180D0;                          87P     63
508,4,0,63,2,0,0,0,63,6,1,0,0,63,4,1,0,0,63,5,0,0;                    89P     64
510,87,1,0,89;                                                        91P     65
114,3,1,1,1,-3.25D0,3.25D0,-3.252676792604D0,3.252676792604D0,        93P     66
-3.25D0,1D0,0D0,0D0,0D0,0D0,0D0,0D0,0D0,0D0,0D0,0D0,0D0,0D0,0D0,      93P     67
0D0,0D0,0D0,0D0,0D0,0D0,0D0,0D0,0D0,0D0,0D0,0D0,0D0,0D0,0D0,0D0,      93P     68
0D0,3.252676792604D0,0D0,0D0,0D0,-1D0,0D0,0D0,0D0,0D0,0D0,0D0,        93P     69
0D0,0D0,0D0,0D0,0D0,0D0,0D0,0D0,0D0,0D0,0D0,0D0,0D0,0D0,0D0,0D0,      93P     70
0D0,0D0,0D0,0D0,0D0,0D0,0D0,0D0,0D0,0D0,0D0,0D0,0D0,0D0,0D0,0D0,      93P     71
0D0,0D0,0D0,0D0,0D0,0D0,0D0,0D0,0D0,0D0,0D0,0D0,0D0,0D0,0D0,0D0,      93P     72
0D0,0D0,0D0,0D0,0D0,0D0,0D0,0D0,0D0,0D0,0D0,0D0,0D0,0D0,0D0,0D0,      93P     73
0D0,0D0,0D0,0D0,0D0,0D0,0D0,0D0,0D0,0D0,0D0,0D0,0D0,0D0,0D0,0D0,      93P     74
0D0,0D0,0D0,0D0,0D0,0D0,0D0,0D0,0D0,0D0,0D0,0D0,0D0,0D0,0D0,0D0,      93P     75
0D0,0D0,0D0,0D0,0D0,0D0,0D0,0D0,0D0,0D0,0D0,0D0,0D0,0D0,0D0,0D0,      93P     76
0D0,0D0,0D0,0D0,0D0,0D0,0D0,0D0,0D0,0D0,0D0,0D0,0D0,0D0,0D0,0D0,      93P     77
0D0,0D0,0D0,0D0,0D0,0D0,0D0,0D0,0D0,0D0,0D0,0D0,0D0,0D0,0D0,0D0,      93P     78
0D0,0D0,0D0,0D0,0D0;                                                  93P     79
508,2,0,63,3,0,0,0,63,4,0,0;                                          95P     80
510,93,1,0,95;                                                        97P     81
110,0D0,-1.6D1,0D0,0D0,-1.5D1,0D0;                                    99P     82
110,3.2D0,-1.6D1,0D0,3.2D0,-1.5D1,0D0;                               101P     83
120,99,101,0D0,3.141592653590D0;                                     103P     84
508,4,0,63,9,1,0,0,63,12,0,0,0,63,7,0,0,0,63,11,1,0;                 105P     85
510,103,1,0,105;                                                     107P     86
110,0D0,-1.6D1,0D0,0D0,-1.5D1,0D0;                                   109P     87
110,3.2D0,-1.6D1,0D0,3.2D0,-1.5D1,0D0;                               111P     88
120,109,111,3.141592653590D0,6.283185307180D0;                       113P     89
508,4,0,63,10,1,0,0,63,11,0,0,0,63,8,0,0,0,63,12,1,0;                115P     90
510,113,1,0,115;                                                     117P     91
114,3,1,1,1,-3.2D0,3.2D0,-3.201870059374D0,3.201870059374D0,         119P     92
-3.2D0,1D0,0D0,0D0,0D0,0D0,0D0,0D0,0D0,0D0,0D0,0D0,0D0,0D0,0D0,      119P     93
0D0,-1.6D1,0D0,0D0,0D0,0D0,0D0,0D0,0D0,0D0,0D0,0D0,0D0,0D0,0D0,      119P     94
0D0,0D0,3.201870059374D0,0D0,0D0,0D0,-1D0,0D0,0D0,0D0,0D0,0D0,       119P     95
0D0,0D0,0D0,0D0,0D0,0D0,0D0,0D0,0D0,0D0,0D0,0D0,0D0,0D0,0D0,0D0,     119P     96
0D0,0D0,0D0,0D0,0D0,0D0,0D0,0D0,0D0,0D0,0D0,0D0,0D0,0D0,0D0,0D0,     119P     97
0D0,0D0,0D0,0D0,0D0,0D0,0D0,0D0,0D0,0D0,0D0,0D0,0D0,0D0,0D0,0D0,     119P     98
0D0,0D0,0D0,0D0,0D0,0D0,0D0,0D0,0D0,0D0,0D0,0D0,0D0,0D0,0D0,0D0,     119P     99
0D0,0D0,0D0,0D0,0D0,0D0,0D0,0D0,0D0,0D0,0D0,0D0,0D0,0D0,0D0,0D0,     119P    100
0D0,0D0,0D0,0D0,0D0,0D0,0D0,0D0,0D0,0D0,0D0,0D0,0D0,0D0,0D0,0D0,     119P    101
0D0,0D0,0D0,0D0,0D0,0D0,0D0,0D0,0D0,0D0,0D0,0D0,0D0,0D0,0D0,0D0,     119P    102
0D0,0D0,0D0,0D0,0D0,0D0,0D0,0D0,0D0,0D0,0D0,0D0,0D0,0D0,0D0,0D0,     119P    103
0D0,0D0,0D0,0D0,0D0,0D0,0D0,0D0,0D0,0D0,0D0,0D0,0D0,0D0,0D0,0D0,     119P    104
0D0,0D0,0D0,0D0,0D0,0D0;                                             119P    105
508,2,0,63,7,1,0,0,63,8,1,0;                                         121P    106
508,2,0,63,15,0,0,0,63,16,0,0;                                       123P    107
510,119,2,0,121,123;                                                 125P    108
110,-8.75D-1,-3.6D1,0D0,-8.75D-1,-3.5D1,0D0;                         127P    109
110,8.75D-1,-3.6D1,0D0,8.75D-1,-1.6D1,0D0;                           129P    110
120,127,129,0D0,3.141592653590D0;                                    131P    111
508,4,0,63,15,1,0,0,63,18,0,0,0,63,13,0,0,0,63,17,1,0;               133P    112
510,131,1,0,133;                                                     135P    113
110,-8.75D-1,-3.6D1,0D0,-8.75D-1,-3.5D1,0D0;                         137P    114
110,8.75D-1,-3.6D1,0D0,8.75D-1,-1.6D1,0D0;                           139P    115
120,137,139,3.141592653590D0,6.283185307180D0;                       141P    116
508,4,0,63,16,1,0,0,63,17,0,0,0,63,14,0,0,0,63,18,1,0;               143P    117
510,141,1,0,143;                                                     145P    118
114,3,1,1,1,-1.75D0,1.75D0,-1.75D0,1.75D0,-2.625D0,1D0,0D0,0D0,      147P    119
0D0,0D0,0D0,0D0,0D0,0D0,0D0,0D0,0D0,0D0,0D0,0D0,-3.6D1,0D0,0D0,      147P    120
0D0,0D0,0D0,0D0,0D0,0D0,0D0,0D0,0D0,0D0,0D0,0D0,0D0,1.75D0,0D0,      147P    121
0D0,0D0,-1D0,0D0,0D0,0D0,0D0,0D0,0D0,0D0,0D0,0D0,0D0,0D0,0D0,        147P    122
0D0,0D0,0D0,0D0,0D0,0D0,0D0,0D0,0D0,0D0,0D0,0D0,0D0,0D0,0D0,0D0,     147P    123
0D0,0D0,0D0,0D0,0D0,0D0,0D0,0D0,0D0,0D0,0D0,0D0,0D0,0D0,0D0,0D0,     147P    124
0D0,0D0,0D0,0D0,0D0,0D0,0D0,0D0,0D0,0D0,0D0,0D0,0D0,0D0,0D0,0D0,     147P    125
0D0,0D0,0D0,0D0,0D0,0D0,0D0,0D0,0D0,0D0,0D0,0D0,0D0,0D0,0D0,0D0,     147P    126
0D0,0D0,0D0,0D0,0D0,0D0,0D0,0D0,0D0,0D0,0D0,0D0,0D0,0D0,0D0,0D0,     147P    127
0D0,0D0,0D0,0D0,0D0,0D0,0D0,0D0,0D0,0D0,0D0,0D0,0D0,0D0,0D0,0D0,     147P    128
0D0,0D0,0D0,0D0,0D0,0D0,0D0,0D0,0D0,0D0,0D0,0D0,0D0,0D0,0D0,0D0,     147P    129
0D0,0D0,0D0,0D0,0D0,0D0,0D0,0D0,0D0,0D0,0D0,0D0,0D0,0D0,0D0,0D0,     147P    130
0D0,0D0,0D0,0D0,0D0,0D0,0D0,0D0,0D0,0D0,0D0,0D0,0D0,0D0,0D0;         147P    131
508,2,0,63,13,1,0,0,63,14,1,0;                                       149P    132
510,147,1,0,149;                                                     151P    133
514,10,71,0,81,1,91,1,97,1,107,1,117,1,125,0,135,1,145,1,151,0;      153P    134
186,153,1,0;                                                         155P    135
S      1G      4D    156P    135                                        T      1
