ISO-10303-21;
HEADER;
FILE_DESCRIPTION(('STEP AP203'),'1');
FILE_NAME(' ','  ',('TraceParts'),('TraceParts S.A.'),'XStep 1.0',' ',' ');
FILE_SCHEMA(('CONFIG_CONTROL_DESIGN'));
ENDSEC;
DATA;
#1=DESIGN_CONTEXT('',#27,'design');
#2=APPLICATION_PROTOCOL_DEFINITION('INTERNATIONAL STANDARD','config_control_design',1994,#27);
#3=PRODUCT_CATEGORY_RELATIONSHIP('NONE','NONE',#28,#29);
#4=DATE_AND_TIME(#30,#31);
#5=DATE_TIME_ROLE('creation_date');
#6=DATE_TIME_ROLE('classification_date');
#7=PERSON_AND_ORGANIZATION_ROLE('creator');
#8=PERSON_AND_ORGANIZATION_ROLE('design_supplier');
#9=PERSON_AND_ORGANIZATION_ROLE('classification_officer');
#10=PERSON_AND_ORGANIZATION_ROLE('design_owner');
#11=APPROVAL_PERSON_ORGANIZATION(#32,#33,#34);
#12=APPROVAL_DATE_TIME(#4,#33);
#13=CC_DESIGN_APPROVAL(#33,(#35,#36,#37));
#14=CC_DESIGN_DATE_AND_TIME_ASSIGNMENT(#4,#5,(#37));
#15=CC_DESIGN_DATE_AND_TIME_ASSIGNMENT(#4,#6,(#35));
#16=CC_DESIGN_PERSON_AND_ORGANIZATION_ASSIGNMENT(#32,#10,(#38));
#17=CC_DESIGN_PERSON_AND_ORGANIZATION_ASSIGNMENT(#32,#7,(#37));
#18=CC_DESIGN_PERSON_AND_ORGANIZATION_ASSIGNMENT(#32,#7,(#36));
#19=CC_DESIGN_PERSON_AND_ORGANIZATION_ASSIGNMENT(#32,#8,(#36));
#20=CC_DESIGN_SECURITY_CLASSIFICATION(#35,(#36));
#21=CC_DESIGN_PERSON_AND_ORGANIZATION_ASSIGNMENT(#32,#9,(#35));
#22=SHAPE_DEFINITION_REPRESENTATION(#39,#40);
#23= (GEOMETRIC_REPRESENTATION_CONTEXT(3)GLOBAL_UNCERTAINTY_ASSIGNED_CONTEXT((#43))GLOBAL_UNIT_ASSIGNED_CONTEXT((#45,#46,#47))REPRESENTATION_CONTEXT('NONE','WORKSPACE'));
#27=APPLICATION_CONTEXT('CONFIGURATION CONTROLLED 3D DESIGNS OF MECHANICAL PARTS AND ASSEMBLIES');
#28=PRODUCT_CATEGORY('part','NONE');
#29=PRODUCT_RELATED_PRODUCT_CATEGORY('detail',' ',(#38));
#30=CALENDAR_DATE(2011,23,2);
#31=LOCAL_TIME(11,34,53.0,#49);
#32=PERSON_AND_ORGANIZATION(#50,#51);
#33=APPROVAL(#52,'SOLID MODEL');
#34=APPROVAL_ROLE('APPROVED');
#35=SECURITY_CLASSIFICATION('','',#53);
#36=PRODUCT_DEFINITION_FORMATION_WITH_SPECIFIED_SOURCE(' ','NONE',#38,.NOT_KNOWN.);
#37=PRODUCT_DEFINITION('NONE','NONE',#36,#1);
#38=PRODUCT('1','1','PART-1-DESC',(#54));
#39=PRODUCT_DEFINITION_SHAPE('NONE','NONE',#37);
#40=ADVANCED_BREP_SHAPE_REPRESENTATION('1',(#55,#56),#23);
#43=UNCERTAINTY_MEASURE_WITH_UNIT(LENGTH_MEASURE(1.0E-006),#45,'','');
#45= (CONVERSION_BASED_UNIT('MILLIMETRE',#59)LENGTH_UNIT()NAMED_UNIT(#62));
#46= (NAMED_UNIT(#64)PLANE_ANGLE_UNIT()SI_UNIT($,.RADIAN.));
#47= (NAMED_UNIT(#64)SOLID_ANGLE_UNIT()SI_UNIT($,.STERADIAN.));
#49=COORDINATED_UNIVERSAL_TIME_OFFSET(1,0,.AHEAD.);
#50=PERSON('','UNSPECIFIED',$,$,$,$);
#51=ORGANIZATION('UNSPECIFIED','UNSPECIFIED','UNSPECIFIED');
#52=APPROVAL_STATUS('approved');
#53=SECURITY_CLASSIFICATION_LEVEL('unclassified');
#54=MECHANICAL_CONTEXT('',#27,'mechanical');
#55=MANIFOLD_SOLID_BREP('1',#70);
#56=AXIS2_PLACEMENT_3D('',#71,#72,#73);
#59=LENGTH_MEASURE_WITH_UNIT(LENGTH_MEASURE(1.0),#74);
#62=DIMENSIONAL_EXPONENTS(1.0,0.0,0.0,0.0,0.0,0.0,0.0);
#64=DIMENSIONAL_EXPONENTS(0.0,0.0,0.0,0.0,0.0,0.0,0.0);
#70=CLOSED_SHELL('',(#75,#76,#77,#78,#79,#80,#81,#82,#83,#84));
#71=CARTESIAN_POINT('',(0.0,0.0,0.0));
#72=DIRECTION('',(0.0,0.0,1.0));
#73=DIRECTION('',(1.0,0.0,0.0));
#74= (NAMED_UNIT(#62)LENGTH_UNIT()SI_UNIT(.MILLI.,.METRE.));
#75=ADVANCED_FACE('',(#86),#87,.T.);
#76=ADVANCED_FACE('',(#88),#89,.T.);
#77=ADVANCED_FACE('',(#90),#91,.T.);
#78=ADVANCED_FACE('',(#92),#93,.T.);
#79=ADVANCED_FACE('',(#94),#95,.T.);
#80=ADVANCED_FACE('',(#96),#97,.T.);
#81=ADVANCED_FACE('',(#98),#99,.T.);
#82=ADVANCED_FACE('',(#100),#101,.T.);
#83=ADVANCED_FACE('',(#102,#103),#104,.T.);
#84=ADVANCED_FACE('',(#105),#106,.T.);
#86=FACE_OUTER_BOUND('',#107,.T.);
#87=CYLINDRICAL_SURFACE('',#108,3.25);
#88=FACE_OUTER_BOUND('',#109,.T.);
#89=CYLINDRICAL_SURFACE('',#110,3.2);
#90=FACE_OUTER_BOUND('',#111,.T.);
#91=CYLINDRICAL_SURFACE('',#112,1.75);
#92=FACE_OUTER_BOUND('',#113,.T.);
#93=CYLINDRICAL_SURFACE('',#114,1.75);
#94=FACE_OUTER_BOUND('',#115,.T.);
#95=PLANE('',#116);
#96=FACE_OUTER_BOUND('',#117,.T.);
#97=CYLINDRICAL_SURFACE('',#118,3.2);
#98=FACE_OUTER_BOUND('',#119,.T.);
#99=PLANE('',#120);
#100=FACE_OUTER_BOUND('',#121,.T.);
#101=CYLINDRICAL_SURFACE('',#122,3.25);
#102=FACE_BOUND('',#123,.T.);
#103=FACE_OUTER_BOUND('',#124,.T.);
#104=PLANE('',#125);
#105=FACE_OUTER_BOUND('',#126,.T.);
#106=PLANE('',#127);
#107=EDGE_LOOP('',(#128,#129,#130,#131,#132,#133,#134));
#108=AXIS2_PLACEMENT_3D('',#135,#136,#137);
#109=EDGE_LOOP('',(#138,#139,#140,#141));
#110=AXIS2_PLACEMENT_3D('',#142,#143,#144);
#111=EDGE_LOOP('',(#145,#146,#147,#148,#149));
#112=AXIS2_PLACEMENT_3D('',#150,#151,#152);
#113=EDGE_LOOP('',(#153,#154,#155,#156));
#114=AXIS2_PLACEMENT_3D('',#157,#158,#159);
#115=EDGE_LOOP('',(#160,#161));
#116=AXIS2_PLACEMENT_3D('',#162,#163,#164);
#117=EDGE_LOOP('',(#165,#166,#167,#168));
#118=AXIS2_PLACEMENT_3D('',#169,#170,#171);
#119=EDGE_LOOP('',(#172,#173));
#120=AXIS2_PLACEMENT_3D('',#174,#175,#176);
#121=EDGE_LOOP('',(#177,#178,#179,#180,#181,#182));
#122=AXIS2_PLACEMENT_3D('',#183,#184,#185);
#123=EDGE_LOOP('',(#186,#187));
#124=EDGE_LOOP('',(#188,#189));
#125=AXIS2_PLACEMENT_3D('',#190,#191,#192);
#126=EDGE_LOOP('',(#193,#194));
#127=AXIS2_PLACEMENT_3D('',#195,#196,#197);
#128=ORIENTED_EDGE('',*,*,#198,.F.);
#129=ORIENTED_EDGE('',*,*,#199,.F.);
#130=ORIENTED_EDGE('',*,*,#200,.F.);
#131=ORIENTED_EDGE('',*,*,#201,.T.);
#132=ORIENTED_EDGE('',*,*,#202,.T.);
#133=ORIENTED_EDGE('',*,*,#203,.F.);
#134=ORIENTED_EDGE('',*,*,#204,.F.);
#135=CARTESIAN_POINT('',(7.5,5.2045770037451E-016,0.0));
#136=DIRECTION('',(1.0,-6.12303176911189E-017,0.0));
#137=DIRECTION('',(6.12303176911189E-017,1.0,0.0));
#138=ORIENTED_EDGE('',*,*,#205,.F.);
#139=ORIENTED_EDGE('',*,*,#206,.F.);
#140=ORIENTED_EDGE('',*,*,#207,.F.);
#141=ORIENTED_EDGE('',*,*,#208,.F.);
#142=CARTESIAN_POINT('',(15.5,3.06151588455594E-017,0.0));
#143=DIRECTION('',(1.0,-6.12303176911189E-017,0.0));
#144=DIRECTION('',(6.12303176911189E-017,1.0,0.0));
#145=ORIENTED_EDGE('',*,*,#209,.F.);
#146=ORIENTED_EDGE('',*,*,#210,.F.);
#147=ORIENTED_EDGE('',*,*,#211,.F.);
#148=ORIENTED_EDGE('',*,*,#202,.F.);
#149=ORIENTED_EDGE('',*,*,#201,.F.);
#150=CARTESIAN_POINT('',(12.75,-15.0,0.0));
#151=DIRECTION('',(0.0,-1.0,0.0));
#152=DIRECTION('',(1.0,0.0,0.0));
#153=ORIENTED_EDGE('',*,*,#209,.T.);
#154=ORIENTED_EDGE('',*,*,#212,.F.);
#155=ORIENTED_EDGE('',*,*,#211,.T.);
#156=ORIENTED_EDGE('',*,*,#213,.F.);
#157=CARTESIAN_POINT('',(12.75,-15.0,0.0));
#158=DIRECTION('',(0.0,-1.0,0.0));
#159=DIRECTION('',(1.0,0.0,0.0));
#160=ORIENTED_EDGE('',*,*,#213,.T.);
#161=ORIENTED_EDGE('',*,*,#210,.T.);
#162=CARTESIAN_POINT('',(12.75,-30.0,0.0));
#163=DIRECTION('',(0.0,-1.0,0.0));
#164=DIRECTION('',(-1.0,0.0,0.0));
#165=ORIENTED_EDGE('',*,*,#205,.T.);
#166=ORIENTED_EDGE('',*,*,#214,.F.);
#167=ORIENTED_EDGE('',*,*,#207,.T.);
#168=ORIENTED_EDGE('',*,*,#215,.F.);
#169=CARTESIAN_POINT('',(15.5,3.06151588455594E-017,0.0));
#170=DIRECTION('',(1.0,-6.12303176911189E-017,0.0));
#171=DIRECTION('',(6.12303176911189E-017,1.0,0.0));
#172=ORIENTED_EDGE('',*,*,#215,.T.);
#173=ORIENTED_EDGE('',*,*,#206,.T.);
#174=CARTESIAN_POINT('',(16.0,0.0,0.0));
#175=DIRECTION('',(1.0,-6.12303176911189E-017,0.0));
#176=DIRECTION('',(-6.12303176911189E-017,-1.0,0.0));
#177=ORIENTED_EDGE('',*,*,#198,.T.);
#178=ORIENTED_EDGE('',*,*,#216,.F.);
#179=ORIENTED_EDGE('',*,*,#203,.T.);
#180=ORIENTED_EDGE('',*,*,#212,.T.);
#181=ORIENTED_EDGE('',*,*,#200,.T.);
#182=ORIENTED_EDGE('',*,*,#217,.F.);
#183=CARTESIAN_POINT('',(7.5,5.2045770037451E-016,0.0));
#184=DIRECTION('',(1.0,-6.12303176911189E-017,0.0));
#185=DIRECTION('',(6.12303176911189E-017,1.0,0.0));
#186=ORIENTED_EDGE('',*,*,#208,.T.);
#187=ORIENTED_EDGE('',*,*,#214,.T.);
#188=ORIENTED_EDGE('',*,*,#217,.T.);
#189=ORIENTED_EDGE('',*,*,#199,.T.);
#190=CARTESIAN_POINT('',(15.0,6.12303176911189E-017,0.0));
#191=DIRECTION('',(1.0,-6.12303176911189E-017,0.0));
#192=DIRECTION('',(-6.12303176911189E-017,-1.0,0.0));
#193=ORIENTED_EDGE('',*,*,#204,.T.);
#194=ORIENTED_EDGE('',*,*,#216,.T.);
#195=CARTESIAN_POINT('',(0.0,9.79685083057902E-016,0.0));
#196=DIRECTION('',(-1.0,6.12303176911189E-017,0.0));
#197=DIRECTION('',(6.12303176911189E-017,1.0,0.0));
#198=EDGE_CURVE('',#218,#219,#220,.T.);
#199=EDGE_CURVE('',#221,#218,#222,.T.);
#200=EDGE_CURVE('',#223,#221,#224,.T.);
#201=EDGE_CURVE('',#223,#225,#226,.T.);
#202=EDGE_CURVE('',#225,#227,#228,.T.);
#203=EDGE_CURVE('',#229,#227,#230,.T.);
#204=EDGE_CURVE('',#219,#229,#231,.T.);
#205=EDGE_CURVE('',#232,#233,#234,.T.);
#206=EDGE_CURVE('',#235,#232,#236,.T.);
#207=EDGE_CURVE('',#237,#235,#238,.T.);
#208=EDGE_CURVE('',#233,#237,#239,.T.);
#209=EDGE_CURVE('',#240,#223,#241,.T.);
#210=EDGE_CURVE('',#242,#240,#243,.T.);
#211=EDGE_CURVE('',#227,#242,#244,.T.);
#212=EDGE_CURVE('',#227,#223,#245,.T.);
#213=EDGE_CURVE('',#240,#242,#246,.T.);
#214=EDGE_CURVE('',#237,#233,#247,.T.);
#215=EDGE_CURVE('',#232,#235,#248,.T.);
#216=EDGE_CURVE('',#229,#219,#249,.T.);
#217=EDGE_CURVE('',#218,#221,#250,.T.);
#218=VERTEX_POINT('',#251);
#219=VERTEX_POINT('',#252);
#220=LINE('',#253,#254);
#221=VERTEX_POINT('',#255);
#222=CIRCLE('',#256,3.25);
#223=VERTEX_POINT('',#257);
#224=LINE('',#258,#259);
#225=VERTEX_POINT('',#260);
#226=B_SPLINE_CURVE_WITH_KNOTS('',3,(#261,#262,#263,#264,#265,#266,#267,#268,#269,#270,#271,#272,#273,#274,#275,#276),.UNSPECIFIED.,.F.,.F.,(4,2,2,2,2,2,2,4),(8.10280873881633,8.43977614887065,8.77674355892498,9.11371096897931,9.45067837903363,10.127211682061,10.4654783335747,10.8037449850884),.UNSPECIFIED.);
#227=VERTEX_POINT('',#277);
#228=B_SPLINE_CURVE_WITH_KNOTS('',3,(#278,#279,#280,#281,#282,#283,#284,#285,#286,#287,#288,#289,#290,#291,#292,#293),.UNSPECIFIED.,.F.,.F.,(4,2,2,2,2,2,2,4),(0.0,0.3382666515137,0.6765333030274,1.3530666060548,1.69003401610913,2.02700142616345,2.36396883621778,2.70093624627211),.UNSPECIFIED.);
#229=VERTEX_POINT('',#294);
#230=LINE('',#295,#296);
#231=CIRCLE('',#297,3.25);
#232=VERTEX_POINT('',#298);
#233=VERTEX_POINT('',#299);
#234=LINE('',#300,#301);
#235=VERTEX_POINT('',#302);
#236=CIRCLE('',#303,3.2);
#237=VERTEX_POINT('',#304);
#238=LINE('',#305,#306);
#239=CIRCLE('',#307,3.2);
#240=VERTEX_POINT('',#308);
#241=LINE('',#309,#310);
#242=VERTEX_POINT('',#311);
#243=CIRCLE('',#312,1.75);
#244=LINE('',#313,#314);
#245=B_SPLINE_CURVE_WITH_KNOTS('',3,(#315,#316,#317,#318,#319,#320,#321,#322,#323,#324,#325,#326,#327,#328,#329,#330,#331,#332,#333,#334,#335,#336,#337,#338,#339,#340,#341,#342,#343,#344),.UNSPECIFIED.,.F.,.F.,(4,2,2,2,2,2,2,2,2,2,2,2,2,2,4),(2.70093624627211,3.03790365632644,3.37487106638076,3.71183847643509,4.04880588648942,4.72533918951682,5.06360584103052,5.40187249254422,5.74013914405792,6.07840579557162,6.75493909859902,7.09190650865335,7.42887391870767,7.765841328762,8.10280873881633),.UNSPECIFIED.);
#246=CIRCLE('',#345,1.75);
#247=CIRCLE('',#346,3.2);
#248=CIRCLE('',#347,3.2);
#249=CIRCLE('',#348,3.25);
#250=CIRCLE('',#349,3.25);
#251=CARTESIAN_POINT('',(15.0,3.25,0.0));
#252=CARTESIAN_POINT('',(0.0,3.25,0.0));
#253=CARTESIAN_POINT('',(7.5,3.25,3.97997064992273E-016));
#254=VECTOR('',#350,1.0);
#255=CARTESIAN_POINT('',(15.0,-3.25,-3.97997064992273E-016));
#256=AXIS2_PLACEMENT_3D('',#351,#352,#353);
#257=CARTESIAN_POINT('',(14.5,-3.25,2.94503191364953E-016));
#258=CARTESIAN_POINT('',(7.5,-3.25,-3.97997064992273E-016));
#259=VECTOR('',#354,1.0);
#260=CARTESIAN_POINT('',(12.75,-2.73861278752583,-1.75));
#261=CARTESIAN_POINT('',(14.5,-3.25,2.94503191364953E-016));
#262=CARTESIAN_POINT('',(14.5,-3.25,-0.112322470018108));
#263=CARTESIAN_POINT('',(14.4890111271497,-3.24403897802495,-0.227759008498112));
#264=CARTESIAN_POINT('',(14.4435602590057,-3.21990303293496,-0.455946833913403));
#265=CARTESIAN_POINT('',(14.4091145135256,-3.20174259887724,-0.56870288951258));
#266=CARTESIAN_POINT('',(14.319044565682,-3.1560094441542,-0.783698293320959));
#267=CARTESIAN_POINT('',(14.2633481285824,-3.12842442491979,-0.886147723225934));
#268=CARTESIAN_POINT('',(14.1356778324834,-3.06870003106248,-1.07488477958131));
#269=CARTESIAN_POINT('',(14.0636942323579,-3.0366039116293,-1.16117950179503));
#270=CARTESIAN_POINT('',(13.8343340871795,-2.94216149890877,-1.39053964697346));
#271=CARTESIAN_POINT('',(13.6407939176209,-2.87230233844429,-1.52417358319434));
#272=CARTESIAN_POINT('',(13.3189491863772,-2.79514864316066,-1.65901355695285));
#273=CARTESIAN_POINT('',(13.2064185450741,-2.77407851614125,-1.69343029930785));
#274=CARTESIAN_POINT('',(12.9783271376934,-2.74578349753887,-1.73893380578521));
#275=CARTESIAN_POINT('',(12.8627555505046,-2.73861278752583,-1.75));
#276=CARTESIAN_POINT('',(12.75,-2.73861278752583,-1.75));
#277=CARTESIAN_POINT('',(11.0,-3.25,-2.11236464518066E-016));
#278=CARTESIAN_POINT('',(12.75,-2.73861278752583,-1.75));
#279=CARTESIAN_POINT('',(12.6372444494954,-2.73861278752583,-1.75));
#280=CARTESIAN_POINT('',(12.5216728623066,-2.74578349753887,-1.73893380578521));
#281=CARTESIAN_POINT('',(12.2935814549259,-2.77407851614125,-1.69343029930785));
#282=CARTESIAN_POINT('',(12.1810508136228,-2.79514864316066,-1.65901355695285));
#283=CARTESIAN_POINT('',(11.8592060823791,-2.87230233844429,-1.52417358319434));
#284=CARTESIAN_POINT('',(11.6656659128205,-2.94216149890877,-1.39053964697346));
#285=CARTESIAN_POINT('',(11.4363057676421,-3.0366039116293,-1.16117950179503));
#286=CARTESIAN_POINT('',(11.3643221675166,-3.06870003106248,-1.07488477958131));
#287=CARTESIAN_POINT('',(11.2366518714176,-3.12842442491979,-0.886147723225935));
#288=CARTESIAN_POINT('',(11.180955434318,-3.1560094441542,-0.78369829332096));
#289=CARTESIAN_POINT('',(11.0908854864744,-3.20174259887724,-0.568702889512581));
#290=CARTESIAN_POINT('',(11.0564397409943,-3.21990303293496,-0.455946833913404));
#291=CARTESIAN_POINT('',(11.0109888728503,-3.24403897802494,-0.227759008498113));
#292=CARTESIAN_POINT('',(11.0,-3.25,-0.112322470018109));
#293=CARTESIAN_POINT('',(11.0,-3.25,-2.11236464518066E-016));
#294=CARTESIAN_POINT('',(-1.9899057615866E-016,-3.25,-3.97997064992273E-016));
#295=CARTESIAN_POINT('',(7.5,-3.25,-3.97997064992273E-016));
#296=VECTOR('',#355,1.0);
#297=AXIS2_PLACEMENT_3D('',#356,#357,#358);
#298=CARTESIAN_POINT('',(16.0,3.2,0.0));
#299=CARTESIAN_POINT('',(15.0,3.2,0.0));
#300=CARTESIAN_POINT('',(15.5,3.2,3.91874033223161E-016));
#301=VECTOR('',#359,1.0);
#302=CARTESIAN_POINT('',(16.0,-3.2,-3.91874033223161E-016));
#303=AXIS2_PLACEMENT_3D('',#360,#361,#362);
#304=CARTESIAN_POINT('',(15.0,-3.2,-3.91874033223161E-016));
#305=CARTESIAN_POINT('',(15.5,-3.2,-3.91874033223161E-016));
#306=VECTOR('',#363,1.0);
#307=AXIS2_PLACEMENT_3D('',#364,#365,#366);
#308=CARTESIAN_POINT('',(14.5,-30.0,0.0));
#309=CARTESIAN_POINT('',(14.5,-15.0,2.14306111918916E-016));
#310=VECTOR('',#367,1.0);
#311=CARTESIAN_POINT('',(11.0,-30.0,-2.14306111918916E-016));
#312=AXIS2_PLACEMENT_3D('',#368,#369,#370);
#313=CARTESIAN_POINT('',(11.0,-15.0,-2.14306111918916E-016));
#314=VECTOR('',#371,1.0);
#315=CARTESIAN_POINT('',(11.0,-3.25,-2.11236464518066E-016));
#316=CARTESIAN_POINT('',(11.0,-3.25,0.112322470018109));
#317=CARTESIAN_POINT('',(11.0109888728503,-3.24403897802494,0.227759008498113));
#318=CARTESIAN_POINT('',(11.0564397409943,-3.21990303293496,0.455946833913404));
#319=CARTESIAN_POINT('',(11.0908854864744,-3.20174259887724,0.568702889512581));
#320=CARTESIAN_POINT('',(11.180955434318,-3.1560094441542,0.78369829332096));
#321=CARTESIAN_POINT('',(11.2366518714176,-3.12842442491979,0.886147723225935));
#322=CARTESIAN_POINT('',(11.3643221675166,-3.06870003106248,1.07488477958131));
#323=CARTESIAN_POINT('',(11.4363057676421,-3.0366039116293,1.16117950179503));
#324=CARTESIAN_POINT('',(11.6656659128205,-2.94216149890877,1.39053964697346));
#325=CARTESIAN_POINT('',(11.8592060823791,-2.87230233844429,1.52417358319434));
#326=CARTESIAN_POINT('',(12.1810508136228,-2.79514864316066,1.65901355695285));
#327=CARTESIAN_POINT('',(12.2935814549259,-2.77407851614125,1.69343029930785));
#328=CARTESIAN_POINT('',(12.5216728623066,-2.74578349753887,1.73893380578521));
#329=CARTESIAN_POINT('',(12.6372444494954,-2.73861278752583,1.75));
#330=CARTESIAN_POINT('',(12.8627555505046,-2.73861278752583,1.75));
#331=CARTESIAN_POINT('',(12.9783271376934,-2.74578349753887,1.73893380578521));
#332=CARTESIAN_POINT('',(13.2064185450741,-2.77407851614125,1.69343029930785));
#333=CARTESIAN_POINT('',(13.3189491863772,-2.79514864316066,1.65901355695285));
#334=CARTESIAN_POINT('',(13.6407939176209,-2.87230233844429,1.52417358319434));
#335=CARTESIAN_POINT('',(13.8343340871795,-2.94216149890877,1.39053964697346));
#336=CARTESIAN_POINT('',(14.0636942323579,-3.0366039116293,1.16117950179503));
#337=CARTESIAN_POINT('',(14.1356778324834,-3.06870003106248,1.07488477958131));
#338=CARTESIAN_POINT('',(14.2633481285824,-3.12842442491979,0.886147723225935));
#339=CARTESIAN_POINT('',(14.319044565682,-3.1560094441542,0.78369829332096));
#340=CARTESIAN_POINT('',(14.4091145135256,-3.20174259887724,0.568702889512581));
#341=CARTESIAN_POINT('',(14.4435602590057,-3.21990303293496,0.455946833913404));
#342=CARTESIAN_POINT('',(14.4890111271497,-3.24403897802495,0.227759008498113));
#343=CARTESIAN_POINT('',(14.5,-3.25,0.112322470018109));
#344=CARTESIAN_POINT('',(14.5,-3.25,2.94503191364953E-016));
#345=AXIS2_PLACEMENT_3D('',#372,#373,#374);
#346=AXIS2_PLACEMENT_3D('',#375,#376,#377);
#347=AXIS2_PLACEMENT_3D('',#378,#379,#380);
#348=AXIS2_PLACEMENT_3D('',#381,#382,#383);
#349=AXIS2_PLACEMENT_3D('',#384,#385,#386);
#350=DIRECTION('',(-1.0,6.12303176911189E-017,0.0));
#351=CARTESIAN_POINT('',(15.0,6.12303176911189E-017,0.0));
#352=DIRECTION('',(1.0,-6.12303176911189E-017,0.0));
#353=DIRECTION('',(6.12303176911189E-017,1.0,0.0));
#354=DIRECTION('',(1.0,-6.12303176911189E-017,0.0));
#355=DIRECTION('',(1.0,-6.12303176911189E-017,0.0));
#356=CARTESIAN_POINT('',(0.0,9.79685083057902E-016,0.0));
#357=DIRECTION('',(-1.0,6.12303176911189E-017,0.0));
#358=DIRECTION('',(6.12303176911189E-017,1.0,0.0));
#359=DIRECTION('',(-1.0,6.12303176911189E-017,0.0));
#360=CARTESIAN_POINT('',(16.0,0.0,0.0));
#361=DIRECTION('',(1.0,-6.12303176911189E-017,0.0));
#362=DIRECTION('',(6.12303176911189E-017,1.0,0.0));
#363=DIRECTION('',(1.0,-6.12303176911189E-017,0.0));
#364=CARTESIAN_POINT('',(15.0,6.12303176911189E-017,0.0));
#365=DIRECTION('',(-1.0,6.12303176911189E-017,0.0));
#366=DIRECTION('',(6.12303176911189E-017,1.0,0.0));
#367=DIRECTION('',(0.0,1.0,0.0));
#368=CARTESIAN_POINT('',(12.75,-30.0,0.0));
#369=DIRECTION('',(0.0,-1.0,0.0));
#370=DIRECTION('',(1.0,0.0,0.0));
#371=DIRECTION('',(0.0,-1.0,0.0));
#372=CARTESIAN_POINT('',(12.75,-30.0,0.0));
#373=DIRECTION('',(0.0,-1.0,0.0));
#374=DIRECTION('',(1.0,0.0,0.0));
#375=CARTESIAN_POINT('',(15.0,6.12303176911189E-017,0.0));
#376=DIRECTION('',(-1.0,6.12303176911189E-017,0.0));
#377=DIRECTION('',(6.12303176911189E-017,1.0,0.0));
#378=CARTESIAN_POINT('',(16.0,0.0,0.0));
#379=DIRECTION('',(1.0,-6.12303176911189E-017,0.0));
#380=DIRECTION('',(6.12303176911189E-017,1.0,0.0));
#381=CARTESIAN_POINT('',(0.0,9.79685083057902E-016,0.0));
#382=DIRECTION('',(-1.0,6.12303176911189E-017,0.0));
#383=DIRECTION('',(6.12303176911189E-017,1.0,0.0));
#384=CARTESIAN_POINT('',(15.0,6.12303176911189E-017,0.0));
#385=DIRECTION('',(1.0,-6.12303176911189E-017,0.0));
#386=DIRECTION('',(6.12303176911189E-017,1.0,0.0));
ENDSEC;
END-ISO-10303-21;
