ISO-10303-21;
HEADER;
FILE_DESCRIPTION(('STEP AP203'),'1');
FILE_NAME(' ','  ',('TraceParts'),('TraceParts S.A.'),'XStep 1.0',' ',' ');
FILE_SCHEMA(('CONFIG_CONTROL_DESIGN'));
ENDSEC;
DATA;
#1=DESIGN_CONTEXT('',#27,'design');
#2=APPLICATION_PROTOCOL_DEFINITION('INTERNATIONAL STANDARD','config_control_design',1994,#27);
#3=PRODUCT_CATEGORY_RELATIONSHIP('NONE','NONE',#28,#29);
#4=DATE_AND_TIME(#30,#31);
#5=DATE_TIME_ROLE('creation_date');
#6=DATE_TIME_ROLE('classification_date');
#7=PERSON_AND_ORGANIZATION_ROLE('creator');
#8=PERSON_AND_ORGANIZATION_ROLE('design_supplier');
#9=PERSON_AND_ORGANIZATION_ROLE('classification_officer');
#10=PERSON_AND_ORGANIZATION_ROLE('design_owner');
#11=APPROVAL_PERSON_ORGANIZATION(#32,#33,#34);
#12=APPROVAL_DATE_TIME(#4,#33);
#13=CC_DESIGN_APPROVAL(#33,(#35,#36,#37));
#14=CC_DESIGN_DATE_AND_TIME_ASSIGNMENT(#4,#5,(#37));
#15=CC_DESIGN_DATE_AND_TIME_ASSIGNMENT(#4,#6,(#35));
#16=CC_DESIGN_PERSON_AND_ORGANIZATION_ASSIGNMENT(#32,#10,(#38));
#17=CC_DESIGN_PERSON_AND_ORGANIZATION_ASSIGNMENT(#32,#7,(#37));
#18=CC_DESIGN_PERSON_AND_ORGANIZATION_ASSIGNMENT(#32,#7,(#36));
#19=CC_DESIGN_PERSON_AND_ORGANIZATION_ASSIGNMENT(#32,#8,(#36));
#20=CC_DESIGN_SECURITY_CLASSIFICATION(#35,(#36));
#21=CC_DESIGN_PERSON_AND_ORGANIZATION_ASSIGNMENT(#32,#9,(#35));
#22=SHAPE_DEFINITION_REPRESENTATION(#39,#40);
#23= (GEOMETRIC_REPRESENTATION_CONTEXT(3)GLOBAL_UNCERTAINTY_ASSIGNED_CONTEXT((#43))GLOBAL_UNIT_ASSIGNED_CONTEXT((#45,#46,#47))REPRESENTATION_CONTEXT('NONE','WORKSPACE'));
#27=APPLICATION_CONTEXT('CONFIGURATION CONTROLLED 3D DESIGNS OF MECHANICAL PARTS AND ASSEMBLIES');
#28=PRODUCT_CATEGORY('part','NONE');
#29=PRODUCT_RELATED_PRODUCT_CATEGORY('detail',' ',(#38));
#30=CALENDAR_DATE(2011,23,2);
#31=LOCAL_TIME(11,20,16.0,#49);
#32=PERSON_AND_ORGANIZATION(#50,#51);
#33=APPROVAL(#52,'SOLID MODEL');
#34=APPROVAL_ROLE('APPROVED');
#35=SECURITY_CLASSIFICATION('','',#53);
#36=PRODUCT_DEFINITION_FORMATION_WITH_SPECIFIED_SOURCE(' ','NONE',#38,.NOT_KNOWN.);
#37=PRODUCT_DEFINITION('NONE','NONE',#36,#1);
#38=PRODUCT('1','1','PART-1-DESC',(#54));
#39=PRODUCT_DEFINITION_SHAPE('NONE','NONE',#37);
#40=ADVANCED_BREP_SHAPE_REPRESENTATION('1',(#55,#56),#23);
#43=UNCERTAINTY_MEASURE_WITH_UNIT(LENGTH_MEASURE(1.0E-006),#45,'','');
#45= (CONVERSION_BASED_UNIT('MILLIMETRE',#59)LENGTH_UNIT()NAMED_UNIT(#62));
#46= (NAMED_UNIT(#64)PLANE_ANGLE_UNIT()SI_UNIT($,.RADIAN.));
#47= (NAMED_UNIT(#64)SOLID_ANGLE_UNIT()SI_UNIT($,.STERADIAN.));
#49=COORDINATED_UNIVERSAL_TIME_OFFSET(1,0,.AHEAD.);
#50=PERSON('','UNSPECIFIED',$,$,$,$);
#51=ORGANIZATION('UNSPECIFIED','UNSPECIFIED','UNSPECIFIED');
#52=APPROVAL_STATUS('approved');
#53=SECURITY_CLASSIFICATION_LEVEL('unclassified');
#54=MECHANICAL_CONTEXT('',#27,'mechanical');
#55=MANIFOLD_SOLID_BREP('1',#70);
#56=AXIS2_PLACEMENT_3D('',#71,#72,#73);
#59=LENGTH_MEASURE_WITH_UNIT(LENGTH_MEASURE(1.0),#74);
#62=DIMENSIONAL_EXPONENTS(1.0,0.0,0.0,0.0,0.0,0.0,0.0);
#64=DIMENSIONAL_EXPONENTS(0.0,0.0,0.0,0.0,0.0,0.0,0.0);
#70=CLOSED_SHELL('',(#75,#76,#77,#78,#79,#80,#81,#82,#83,#84,#85,#86,#87,#88,#89,#90,#91,#92,#93,#94,#95,#96,#97,#98));
#71=CARTESIAN_POINT('',(0.0,0.0,0.0));
#72=DIRECTION('',(0.0,0.0,1.0));
#73=DIRECTION('',(1.0,0.0,0.0));
#74= (NAMED_UNIT(#62)LENGTH_UNIT()SI_UNIT(.MILLI.,.METRE.));
#75=ADVANCED_FACE('',(#100),#101,.T.);
#76=ADVANCED_FACE('',(#102),#103,.F.);
#77=ADVANCED_FACE('',(#104),#105,.F.);
#78=ADVANCED_FACE('',(#106),#107,.F.);
#79=ADVANCED_FACE('',(#108),#109,.F.);
#80=ADVANCED_FACE('',(#110),#111,.F.);
#81=ADVANCED_FACE('',(#112),#113,.F.);
#82=ADVANCED_FACE('',(#114),#115,.F.);
#83=ADVANCED_FACE('',(#116),#117,.F.);
#84=ADVANCED_FACE('',(#118),#119,.F.);
#85=ADVANCED_FACE('',(#120),#121,.F.);
#86=ADVANCED_FACE('',(#122),#123,.F.);
#87=ADVANCED_FACE('',(#124),#125,.F.);
#88=ADVANCED_FACE('',(#126),#127,.F.);
#89=ADVANCED_FACE('',(#128),#129,.F.);
#90=ADVANCED_FACE('',(#130),#131,.F.);
#91=ADVANCED_FACE('',(#132),#133,.T.);
#92=ADVANCED_FACE('',(#134),#135,.T.);
#93=ADVANCED_FACE('',(#136,#137),#138,.T.);
#94=ADVANCED_FACE('',(#139),#140,.F.);
#95=ADVANCED_FACE('',(#141,#142),#143,.F.);
#96=ADVANCED_FACE('',(#144,#145,#146),#147,.F.);
#97=ADVANCED_FACE('',(#148),#149,.F.);
#98=ADVANCED_FACE('',(#150,#151,#152),#153,.F.);
#100=FACE_OUTER_BOUND('',#154,.T.);
#101=CYLINDRICAL_SURFACE('',#155,1.75);
#102=FACE_OUTER_BOUND('',#156,.T.);
#103=CONICAL_SURFACE('',#157,1.3646875,0.785398163397448);
#104=FACE_OUTER_BOUND('',#158,.T.);
#105=CYLINDRICAL_SURFACE('',#159,1.229375);
#106=FACE_OUTER_BOUND('',#160,.T.);
#107=CONICAL_SURFACE('',#161,1.3646875,0.785398163397448);
#108=FACE_OUTER_BOUND('',#162,.T.);
#109=CONICAL_SURFACE('',#163,1.3646875,0.785398163397448);
#110=FACE_OUTER_BOUND('',#164,.T.);
#111=CYLINDRICAL_SURFACE('',#165,1.229375);
#112=FACE_OUTER_BOUND('',#166,.T.);
#113=CONICAL_SURFACE('',#167,1.3646875,0.785398163397448);
#114=FACE_OUTER_BOUND('',#168,.T.);
#115=CYLINDRICAL_SURFACE('',#169,3.5);
#116=FACE_OUTER_BOUND('',#170,.T.);
#117=CYLINDRICAL_SURFACE('',#171,3.5);
#118=FACE_OUTER_BOUND('',#172,.T.);
#119=PLANE('',#173);
#120=FACE_OUTER_BOUND('',#174,.T.);
#121=CONICAL_SURFACE('',#175,1.3646875,0.785398163397448);
#122=FACE_OUTER_BOUND('',#176,.T.);
#123=CYLINDRICAL_SURFACE('',#177,1.229375);
#124=FACE_OUTER_BOUND('',#178,.T.);
#125=CONICAL_SURFACE('',#179,1.3646875,0.785398163397448);
#126=FACE_OUTER_BOUND('',#180,.T.);
#127=CONICAL_SURFACE('',#181,1.3646875,0.785398163397448);
#128=FACE_OUTER_BOUND('',#182,.T.);
#129=CYLINDRICAL_SURFACE('',#183,1.229375);
#130=FACE_OUTER_BOUND('',#184,.T.);
#131=CONICAL_SURFACE('',#185,1.3646875,0.785398163397448);
#132=FACE_OUTER_BOUND('',#186,.T.);
#133=CYLINDRICAL_SURFACE('',#187,1.75);
#134=FACE_OUTER_BOUND('',#188,.T.);
#135=PLANE('',#189);
#136=FACE_BOUND('',#190,.T.);
#137=FACE_OUTER_BOUND('',#191,.T.);
#138=PLANE('',#192);
#139=FACE_OUTER_BOUND('',#193,.T.);
#140=PLANE('',#194);
#141=FACE_BOUND('',#195,.T.);
#142=FACE_OUTER_BOUND('',#196,.T.);
#143=PLANE('',#197);
#144=FACE_BOUND('',#198,.T.);
#145=FACE_BOUND('',#199,.T.);
#146=FACE_OUTER_BOUND('',#200,.T.);
#147=PLANE('',#201);
#148=FACE_OUTER_BOUND('',#202,.T.);
#149=PLANE('',#203);
#150=FACE_BOUND('',#204,.T.);
#151=FACE_BOUND('',#205,.T.);
#152=FACE_OUTER_BOUND('',#206,.T.);
#153=PLANE('',#207);
#154=EDGE_LOOP('',(#208,#209,#210,#211));
#155=AXIS2_PLACEMENT_3D('',#212,#213,#214);
#156=EDGE_LOOP('',(#215,#216,#217,#218));
#157=AXIS2_PLACEMENT_3D('',#219,#220,#221);
#158=EDGE_LOOP('',(#222,#223,#224,#225));
#159=AXIS2_PLACEMENT_3D('',#226,#227,#228);
#160=EDGE_LOOP('',(#229,#230,#231,#232));
#161=AXIS2_PLACEMENT_3D('',#233,#234,#235);
#162=EDGE_LOOP('',(#236,#237,#238,#239));
#163=AXIS2_PLACEMENT_3D('',#240,#241,#242);
#164=EDGE_LOOP('',(#243,#244,#245,#246));
#165=AXIS2_PLACEMENT_3D('',#247,#248,#249);
#166=EDGE_LOOP('',(#250,#251,#252,#253));
#167=AXIS2_PLACEMENT_3D('',#254,#255,#256);
#168=EDGE_LOOP('',(#257,#258,#259,#260));
#169=AXIS2_PLACEMENT_3D('',#261,#262,#263);
#170=EDGE_LOOP('',(#264,#265,#266,#267));
#171=AXIS2_PLACEMENT_3D('',#268,#269,#270);
#172=EDGE_LOOP('',(#271,#272));
#173=AXIS2_PLACEMENT_3D('',#273,#274,#275);
#174=EDGE_LOOP('',(#276,#277,#278,#279));
#175=AXIS2_PLACEMENT_3D('',#280,#281,#282);
#176=EDGE_LOOP('',(#283,#284,#285,#286));
#177=AXIS2_PLACEMENT_3D('',#287,#288,#289);
#178=EDGE_LOOP('',(#290,#291,#292,#293));
#179=AXIS2_PLACEMENT_3D('',#294,#295,#296);
#180=EDGE_LOOP('',(#297,#298,#299,#300));
#181=AXIS2_PLACEMENT_3D('',#301,#302,#303);
#182=EDGE_LOOP('',(#304,#305,#306,#307));
#183=AXIS2_PLACEMENT_3D('',#308,#309,#310);
#184=EDGE_LOOP('',(#311,#312,#313,#314));
#185=AXIS2_PLACEMENT_3D('',#315,#316,#317);
#186=EDGE_LOOP('',(#318,#319,#320,#321));
#187=AXIS2_PLACEMENT_3D('',#322,#323,#324);
#188=EDGE_LOOP('',(#325,#326));
#189=AXIS2_PLACEMENT_3D('',#327,#328,#329);
#190=EDGE_LOOP('',(#330,#331));
#191=EDGE_LOOP('',(#332,#333,#334,#335));
#192=AXIS2_PLACEMENT_3D('',#336,#337,#338);
#193=EDGE_LOOP('',(#339,#340,#341,#342));
#194=AXIS2_PLACEMENT_3D('',#343,#344,#345);
#195=EDGE_LOOP('',(#346,#347));
#196=EDGE_LOOP('',(#348,#349,#350,#351));
#197=AXIS2_PLACEMENT_3D('',#352,#353,#354);
#198=EDGE_LOOP('',(#355,#356));
#199=EDGE_LOOP('',(#357,#358));
#200=EDGE_LOOP('',(#359,#360,#361,#362));
#201=AXIS2_PLACEMENT_3D('',#363,#364,#365);
#202=EDGE_LOOP('',(#366,#367,#368,#369));
#203=AXIS2_PLACEMENT_3D('',#370,#371,#372);
#204=EDGE_LOOP('',(#373,#374));
#205=EDGE_LOOP('',(#375,#376));
#206=EDGE_LOOP('',(#377,#378,#379,#380));
#207=AXIS2_PLACEMENT_3D('',#381,#382,#383);
#208=ORIENTED_EDGE('',*,*,#384,.F.);
#209=ORIENTED_EDGE('',*,*,#385,.F.);
#210=ORIENTED_EDGE('',*,*,#386,.F.);
#211=ORIENTED_EDGE('',*,*,#387,.F.);
#212=CARTESIAN_POINT('',(0.0,-60.0,0.0));
#213=DIRECTION('',(0.0,-1.0,0.0));
#214=DIRECTION('',(1.0,0.0,0.0));
#215=ORIENTED_EDGE('',*,*,#388,.F.);
#216=ORIENTED_EDGE('',*,*,#389,.T.);
#217=ORIENTED_EDGE('',*,*,#390,.F.);
#218=ORIENTED_EDGE('',*,*,#391,.F.);
#219=CARTESIAN_POINT('',(-3.8646875,-10.0,1.0));
#220=DIRECTION('',(-1.0,0.0,0.0));
#221=DIRECTION('',(0.0,1.0,0.0));
#222=ORIENTED_EDGE('',*,*,#392,.F.);
#223=ORIENTED_EDGE('',*,*,#393,.F.);
#224=ORIENTED_EDGE('',*,*,#394,.F.);
#225=ORIENTED_EDGE('',*,*,#389,.F.);
#226=CARTESIAN_POINT('',(2.1353125,-10.0,1.0));
#227=DIRECTION('',(-1.0,0.0,0.0));
#228=DIRECTION('',(0.0,1.0,0.0));
#229=ORIENTED_EDGE('',*,*,#395,.F.);
#230=ORIENTED_EDGE('',*,*,#396,.T.);
#231=ORIENTED_EDGE('',*,*,#397,.F.);
#232=ORIENTED_EDGE('',*,*,#398,.F.);
#233=CARTESIAN_POINT('',(3.8646875,-10.0,1.0));
#234=DIRECTION('',(1.0,0.0,1.22460635382238E-016));
#235=DIRECTION('',(0.0,1.0,0.0));
#236=ORIENTED_EDGE('',*,*,#399,.F.);
#237=ORIENTED_EDGE('',*,*,#400,.T.);
#238=ORIENTED_EDGE('',*,*,#401,.F.);
#239=ORIENTED_EDGE('',*,*,#402,.F.);
#240=CARTESIAN_POINT('',(-3.8646875,-30.0,1.0));
#241=DIRECTION('',(-1.0,0.0,0.0));
#242=DIRECTION('',(0.0,1.0,0.0));
#243=ORIENTED_EDGE('',*,*,#403,.F.);
#244=ORIENTED_EDGE('',*,*,#404,.F.);
#245=ORIENTED_EDGE('',*,*,#405,.F.);
#246=ORIENTED_EDGE('',*,*,#400,.F.);
#247=CARTESIAN_POINT('',(2.1353125,-30.0,1.0));
#248=DIRECTION('',(-1.0,0.0,0.0));
#249=DIRECTION('',(0.0,1.0,0.0));
#250=ORIENTED_EDGE('',*,*,#406,.F.);
#251=ORIENTED_EDGE('',*,*,#407,.T.);
#252=ORIENTED_EDGE('',*,*,#408,.F.);
#253=ORIENTED_EDGE('',*,*,#409,.F.);
#254=CARTESIAN_POINT('',(3.8646875,-30.0,1.0));
#255=DIRECTION('',(1.0,0.0,1.22460635382238E-016));
#256=DIRECTION('',(0.0,1.0,0.0));
#257=ORIENTED_EDGE('',*,*,#410,.F.);
#258=ORIENTED_EDGE('',*,*,#411,.F.);
#259=ORIENTED_EDGE('',*,*,#412,.F.);
#260=ORIENTED_EDGE('',*,*,#413,.T.);
#261=CARTESIAN_POINT('',(0.0,-5.0,4.5));
#262=DIRECTION('',(0.0,0.0,-1.0));
#263=DIRECTION('',(1.0,0.0,0.0));
#264=ORIENTED_EDGE('',*,*,#410,.T.);
#265=ORIENTED_EDGE('',*,*,#414,.T.);
#266=ORIENTED_EDGE('',*,*,#412,.T.);
#267=ORIENTED_EDGE('',*,*,#415,.F.);
#268=CARTESIAN_POINT('',(0.0,-5.0,4.5));
#269=DIRECTION('',(0.0,0.0,-1.0));
#270=DIRECTION('',(1.0,0.0,0.0));
#271=ORIENTED_EDGE('',*,*,#414,.F.);
#272=ORIENTED_EDGE('',*,*,#413,.F.);
#273=CARTESIAN_POINT('',(0.0,-5.0,3.75));
#274=DIRECTION('',(0.0,0.0,-1.0));
#275=DIRECTION('',(-1.0,0.0,0.0));
#276=ORIENTED_EDGE('',*,*,#406,.T.);
#277=ORIENTED_EDGE('',*,*,#416,.F.);
#278=ORIENTED_EDGE('',*,*,#408,.T.);
#279=ORIENTED_EDGE('',*,*,#404,.T.);
#280=CARTESIAN_POINT('',(3.8646875,-30.0,1.0));
#281=DIRECTION('',(1.0,0.0,1.22460635382238E-016));
#282=DIRECTION('',(0.0,1.0,0.0));
#283=ORIENTED_EDGE('',*,*,#403,.T.);
#284=ORIENTED_EDGE('',*,*,#417,.F.);
#285=ORIENTED_EDGE('',*,*,#405,.T.);
#286=ORIENTED_EDGE('',*,*,#407,.F.);
#287=CARTESIAN_POINT('',(2.1353125,-30.0,1.0));
#288=DIRECTION('',(-1.0,0.0,0.0));
#289=DIRECTION('',(0.0,1.0,0.0));
#290=ORIENTED_EDGE('',*,*,#399,.T.);
#291=ORIENTED_EDGE('',*,*,#418,.F.);
#292=ORIENTED_EDGE('',*,*,#401,.T.);
#293=ORIENTED_EDGE('',*,*,#417,.T.);
#294=CARTESIAN_POINT('',(-3.8646875,-30.0,1.0));
#295=DIRECTION('',(-1.0,0.0,0.0));
#296=DIRECTION('',(0.0,1.0,0.0));
#297=ORIENTED_EDGE('',*,*,#395,.T.);
#298=ORIENTED_EDGE('',*,*,#419,.F.);
#299=ORIENTED_EDGE('',*,*,#397,.T.);
#300=ORIENTED_EDGE('',*,*,#393,.T.);
#301=CARTESIAN_POINT('',(3.8646875,-10.0,1.0));
#302=DIRECTION('',(1.0,0.0,1.22460635382238E-016));
#303=DIRECTION('',(0.0,1.0,0.0));
#304=ORIENTED_EDGE('',*,*,#392,.T.);
#305=ORIENTED_EDGE('',*,*,#420,.F.);
#306=ORIENTED_EDGE('',*,*,#394,.T.);
#307=ORIENTED_EDGE('',*,*,#396,.F.);
#308=CARTESIAN_POINT('',(2.1353125,-10.0,1.0));
#309=DIRECTION('',(-1.0,0.0,0.0));
#310=DIRECTION('',(0.0,1.0,0.0));
#311=ORIENTED_EDGE('',*,*,#388,.T.);
#312=ORIENTED_EDGE('',*,*,#421,.F.);
#313=ORIENTED_EDGE('',*,*,#390,.T.);
#314=ORIENTED_EDGE('',*,*,#420,.T.);
#315=CARTESIAN_POINT('',(-3.8646875,-10.0,1.0));
#316=DIRECTION('',(-1.0,0.0,0.0));
#317=DIRECTION('',(0.0,1.0,0.0));
#318=ORIENTED_EDGE('',*,*,#384,.T.);
#319=ORIENTED_EDGE('',*,*,#422,.F.);
#320=ORIENTED_EDGE('',*,*,#386,.T.);
#321=ORIENTED_EDGE('',*,*,#423,.F.);
#322=CARTESIAN_POINT('',(0.0,-60.0,0.0));
#323=DIRECTION('',(0.0,-1.0,0.0));
#324=DIRECTION('',(1.0,0.0,0.0));
#325=ORIENTED_EDGE('',*,*,#423,.T.);
#326=ORIENTED_EDGE('',*,*,#385,.T.);
#327=CARTESIAN_POINT('',(0.0,-70.0,0.0));
#328=DIRECTION('',(0.0,-1.0,0.0));
#329=DIRECTION('',(-1.0,0.0,0.0));
#330=ORIENTED_EDGE('',*,*,#411,.T.);
#331=ORIENTED_EDGE('',*,*,#415,.T.);
#332=ORIENTED_EDGE('',*,*,#424,.T.);
#333=ORIENTED_EDGE('',*,*,#425,.T.);
#334=ORIENTED_EDGE('',*,*,#426,.T.);
#335=ORIENTED_EDGE('',*,*,#427,.T.);
#336=CARTESIAN_POINT('',(0.0,-25.0,4.0));
#337=DIRECTION('',(0.0,0.0,1.0));
#338=DIRECTION('',(1.0,0.0,0.0));
#339=ORIENTED_EDGE('',*,*,#428,.T.);
#340=ORIENTED_EDGE('',*,*,#429,.T.);
#341=ORIENTED_EDGE('',*,*,#430,.T.);
#342=ORIENTED_EDGE('',*,*,#431,.T.);
#343=CARTESIAN_POINT('',(0.0,-25.0,-4.0));
#344=DIRECTION('',(0.0,0.0,1.0));
#345=DIRECTION('',(1.0,0.0,0.0));
#346=ORIENTED_EDGE('',*,*,#387,.T.);
#347=ORIENTED_EDGE('',*,*,#422,.T.);
#348=ORIENTED_EDGE('',*,*,#432,.T.);
#349=ORIENTED_EDGE('',*,*,#429,.F.);
#350=ORIENTED_EDGE('',*,*,#433,.F.);
#351=ORIENTED_EDGE('',*,*,#427,.F.);
#352=CARTESIAN_POINT('',(0.0,-50.0,0.0));
#353=DIRECTION('',(0.0,1.0,0.0));
#354=DIRECTION('',(0.0,0.0,1.0));
#355=ORIENTED_EDGE('',*,*,#402,.T.);
#356=ORIENTED_EDGE('',*,*,#418,.T.);
#357=ORIENTED_EDGE('',*,*,#391,.T.);
#358=ORIENTED_EDGE('',*,*,#421,.T.);
#359=ORIENTED_EDGE('',*,*,#434,.T.);
#360=ORIENTED_EDGE('',*,*,#430,.F.);
#361=ORIENTED_EDGE('',*,*,#432,.F.);
#362=ORIENTED_EDGE('',*,*,#426,.F.);
#363=CARTESIAN_POINT('',(-4.0,-25.0,0.0));
#364=DIRECTION('',(1.0,0.0,0.0));
#365=DIRECTION('',(0.0,0.0,-1.0));
#366=ORIENTED_EDGE('',*,*,#435,.T.);
#367=ORIENTED_EDGE('',*,*,#431,.F.);
#368=ORIENTED_EDGE('',*,*,#434,.F.);
#369=ORIENTED_EDGE('',*,*,#425,.F.);
#370=CARTESIAN_POINT('',(0.0,0.0,0.0));
#371=DIRECTION('',(0.0,-1.0,0.0));
#372=DIRECTION('',(0.0,0.0,-1.0));
#373=ORIENTED_EDGE('',*,*,#409,.T.);
#374=ORIENTED_EDGE('',*,*,#416,.T.);
#375=ORIENTED_EDGE('',*,*,#398,.T.);
#376=ORIENTED_EDGE('',*,*,#419,.T.);
#377=ORIENTED_EDGE('',*,*,#433,.T.);
#378=ORIENTED_EDGE('',*,*,#428,.F.);
#379=ORIENTED_EDGE('',*,*,#435,.F.);
#380=ORIENTED_EDGE('',*,*,#424,.F.);
#381=CARTESIAN_POINT('',(4.0,-25.0,0.0));
#382=DIRECTION('',(-1.0,0.0,0.0));
#383=DIRECTION('',(0.0,0.0,1.0));
#384=EDGE_CURVE('',#436,#437,#438,.T.);
#385=EDGE_CURVE('',#439,#436,#440,.T.);
#386=EDGE_CURVE('',#441,#439,#442,.T.);
#387=EDGE_CURVE('',#437,#441,#443,.T.);
#388=EDGE_CURVE('',#444,#445,#446,.T.);
#389=EDGE_CURVE('',#444,#447,#448,.T.);
#390=EDGE_CURVE('',#449,#447,#450,.T.);
#391=EDGE_CURVE('',#445,#449,#451,.T.);
#392=EDGE_CURVE('',#452,#444,#453,.T.);
#393=EDGE_CURVE('',#454,#452,#455,.T.);
#394=EDGE_CURVE('',#447,#454,#456,.T.);
#395=EDGE_CURVE('',#452,#457,#458,.T.);
#396=EDGE_CURVE('',#452,#454,#459,.T.);
#397=EDGE_CURVE('',#460,#454,#461,.T.);
#398=EDGE_CURVE('',#457,#460,#462,.T.);
#399=EDGE_CURVE('',#463,#464,#465,.T.);
#400=EDGE_CURVE('',#463,#466,#467,.T.);
#401=EDGE_CURVE('',#468,#466,#469,.T.);
#402=EDGE_CURVE('',#464,#468,#470,.T.);
#403=EDGE_CURVE('',#471,#463,#472,.T.);
#404=EDGE_CURVE('',#473,#471,#474,.T.);
#405=EDGE_CURVE('',#466,#473,#475,.T.);
#406=EDGE_CURVE('',#471,#476,#477,.T.);
#407=EDGE_CURVE('',#471,#473,#478,.T.);
#408=EDGE_CURVE('',#479,#473,#480,.T.);
#409=EDGE_CURVE('',#476,#479,#481,.T.);
#410=EDGE_CURVE('',#482,#483,#484,.T.);
#411=EDGE_CURVE('',#485,#482,#486,.T.);
#412=EDGE_CURVE('',#487,#485,#488,.T.);
#413=EDGE_CURVE('',#487,#483,#489,.T.);
#414=EDGE_CURVE('',#483,#487,#490,.T.);
#415=EDGE_CURVE('',#482,#485,#491,.T.);
#416=EDGE_CURVE('',#479,#476,#492,.T.);
#417=EDGE_CURVE('',#466,#463,#493,.T.);
#418=EDGE_CURVE('',#468,#464,#494,.T.);
#419=EDGE_CURVE('',#460,#457,#495,.T.);
#420=EDGE_CURVE('',#447,#444,#496,.T.);
#421=EDGE_CURVE('',#449,#445,#497,.T.);
#422=EDGE_CURVE('',#441,#437,#498,.T.);
#423=EDGE_CURVE('',#436,#439,#499,.T.);
#424=EDGE_CURVE('',#500,#501,#502,.T.);
#425=EDGE_CURVE('',#501,#503,#504,.T.);
#426=EDGE_CURVE('',#503,#505,#506,.T.);
#427=EDGE_CURVE('',#505,#500,#507,.T.);
#428=EDGE_CURVE('',#508,#509,#510,.T.);
#429=EDGE_CURVE('',#509,#511,#512,.T.);
#430=EDGE_CURVE('',#511,#513,#514,.T.);
#431=EDGE_CURVE('',#513,#508,#515,.T.);
#432=EDGE_CURVE('',#505,#511,#516,.T.);
#433=EDGE_CURVE('',#500,#509,#517,.T.);
#434=EDGE_CURVE('',#503,#513,#518,.T.);
#435=EDGE_CURVE('',#501,#508,#519,.T.);
#436=VERTEX_POINT('',#520);
#437=VERTEX_POINT('',#521);
#438=LINE('',#522,#523);
#439=VERTEX_POINT('',#524);
#440=CIRCLE('',#525,1.75);
#441=VERTEX_POINT('',#526);
#442=LINE('',#527,#528);
#443=CIRCLE('',#529,1.75);
#444=VERTEX_POINT('',#530);
#445=VERTEX_POINT('',#531);
#446=LINE('',#532,#533);
#447=VERTEX_POINT('',#534);
#448=CIRCLE('',#535,1.229375);
#449=VERTEX_POINT('',#536);
#450=LINE('',#537,#538);
#451=CIRCLE('',#539,1.5);
#452=VERTEX_POINT('',#540);
#453=LINE('',#541,#542);
#454=VERTEX_POINT('',#543);
#455=CIRCLE('',#544,1.229375);
#456=LINE('',#545,#546);
#457=VERTEX_POINT('',#547);
#458=LINE('',#548,#549);
#459=CIRCLE('',#550,1.229375);
#460=VERTEX_POINT('',#551);
#461=LINE('',#552,#553);
#462=CIRCLE('',#554,1.5);
#463=VERTEX_POINT('',#555);
#464=VERTEX_POINT('',#556);
#465=LINE('',#557,#558);
#466=VERTEX_POINT('',#559);
#467=CIRCLE('',#560,1.229375);
#468=VERTEX_POINT('',#561);
#469=LINE('',#562,#563);
#470=CIRCLE('',#564,1.5);
#471=VERTEX_POINT('',#565);
#472=LINE('',#566,#567);
#473=VERTEX_POINT('',#568);
#474=CIRCLE('',#569,1.229375);
#475=LINE('',#570,#571);
#476=VERTEX_POINT('',#572);
#477=LINE('',#573,#574);
#478=CIRCLE('',#575,1.229375);
#479=VERTEX_POINT('',#576);
#480=LINE('',#577,#578);
#481=CIRCLE('',#579,1.5);
#482=VERTEX_POINT('',#580);
#483=VERTEX_POINT('',#581);
#484=LINE('',#582,#583);
#485=VERTEX_POINT('',#584);
#486=CIRCLE('',#585,3.5);
#487=VERTEX_POINT('',#586);
#488=LINE('',#587,#588);
#489=CIRCLE('',#589,3.5);
#490=CIRCLE('',#590,3.5);
#491=CIRCLE('',#591,3.5);
#492=CIRCLE('',#592,1.5);
#493=CIRCLE('',#593,1.229375);
#494=CIRCLE('',#594,1.5);
#495=CIRCLE('',#595,1.5);
#496=CIRCLE('',#596,1.229375);
#497=CIRCLE('',#597,1.5);
#498=CIRCLE('',#598,1.75);
#499=CIRCLE('',#599,1.75);
#500=VERTEX_POINT('',#600);
#501=VERTEX_POINT('',#601);
#502=LINE('',#602,#603);
#503=VERTEX_POINT('',#604);
#504=LINE('',#605,#606);
#505=VERTEX_POINT('',#607);
#506=LINE('',#608,#609);
#507=LINE('',#610,#611);
#508=VERTEX_POINT('',#612);
#509=VERTEX_POINT('',#613);
#510=LINE('',#614,#615);
#511=VERTEX_POINT('',#616);
#512=LINE('',#617,#618);
#513=VERTEX_POINT('',#619);
#514=LINE('',#620,#621);
#515=LINE('',#622,#623);
#516=LINE('',#624,#625);
#517=LINE('',#626,#627);
#518=LINE('',#628,#629);
#519=LINE('',#630,#631);
#520=CARTESIAN_POINT('',(1.75,-70.0,0.0));
#521=CARTESIAN_POINT('',(1.75,-50.0,0.0));
#522=CARTESIAN_POINT('',(1.75,-60.0,2.14306111918916E-016));
#523=VECTOR('',#632,1.0);
#524=CARTESIAN_POINT('',(-1.75,-70.0,-2.14306111918916E-016));
#525=AXIS2_PLACEMENT_3D('',#633,#634,#635);
#526=CARTESIAN_POINT('',(-1.75,-50.0,-2.14306111918916E-016));
#527=CARTESIAN_POINT('',(-1.75,-60.0,-2.14306111918916E-016));
#528=VECTOR('',#636,1.0);
#529=AXIS2_PLACEMENT_3D('',#637,#638,#639);
#530=CARTESIAN_POINT('',(-3.729375,-8.770625,1.0));
#531=CARTESIAN_POINT('',(-4.0,-8.5,1.0));
#532=CARTESIAN_POINT('',(-3.8646875,-8.6353125,1.0));
#533=VECTOR('',#640,1.0);
#534=CARTESIAN_POINT('',(-3.729375,-11.229375,1.0));
#535=AXIS2_PLACEMENT_3D('',#641,#642,#643);
#536=CARTESIAN_POINT('',(-4.0,-11.5,1.0));
#537=CARTESIAN_POINT('',(-3.8646875,-11.3646875,1.0));
#538=VECTOR('',#644,1.0);
#539=AXIS2_PLACEMENT_3D('',#645,#646,#647);
#540=CARTESIAN_POINT('',(3.729375,-8.770625,1.0));
#541=CARTESIAN_POINT('',(2.1353125,-8.770625,1.0));
#542=VECTOR('',#648,1.0);
#543=CARTESIAN_POINT('',(3.729375,-11.229375,1.0));
#544=AXIS2_PLACEMENT_3D('',#649,#650,#651);
#545=CARTESIAN_POINT('',(2.1353125,-11.229375,1.0));
#546=VECTOR('',#652,1.0);
#547=CARTESIAN_POINT('',(4.0,-8.5,1.0));
#548=CARTESIAN_POINT('',(3.8646875,-8.6353125,1.0));
#549=VECTOR('',#653,1.0);
#550=AXIS2_PLACEMENT_3D('',#654,#655,#656);
#551=CARTESIAN_POINT('',(4.0,-11.5,1.0));
#552=CARTESIAN_POINT('',(3.8646875,-11.3646875,1.0));
#553=VECTOR('',#657,1.0);
#554=AXIS2_PLACEMENT_3D('',#658,#659,#660);
#555=CARTESIAN_POINT('',(-3.729375,-28.770625,1.0));
#556=CARTESIAN_POINT('',(-4.0,-28.5,1.0));
#557=CARTESIAN_POINT('',(-3.8646875,-28.6353125,1.0));
#558=VECTOR('',#661,1.0);
#559=CARTESIAN_POINT('',(-3.729375,-31.229375,1.0));
#560=AXIS2_PLACEMENT_3D('',#662,#663,#664);
#561=CARTESIAN_POINT('',(-4.0,-31.5,1.0));
#562=CARTESIAN_POINT('',(-3.8646875,-31.3646875,1.0));
#563=VECTOR('',#665,1.0);
#564=AXIS2_PLACEMENT_3D('',#666,#667,#668);
#565=CARTESIAN_POINT('',(3.729375,-28.770625,1.0));
#566=CARTESIAN_POINT('',(2.1353125,-28.770625,1.0));
#567=VECTOR('',#669,1.0);
#568=CARTESIAN_POINT('',(3.729375,-31.229375,1.0));
#569=AXIS2_PLACEMENT_3D('',#670,#671,#672);
#570=CARTESIAN_POINT('',(2.1353125,-31.229375,1.0));
#571=VECTOR('',#673,1.0);
#572=CARTESIAN_POINT('',(4.0,-28.5,1.0));
#573=CARTESIAN_POINT('',(3.8646875,-28.6353125,1.0));
#574=VECTOR('',#674,1.0);
#575=AXIS2_PLACEMENT_3D('',#675,#676,#677);
#576=CARTESIAN_POINT('',(4.0,-31.5,1.0));
#577=CARTESIAN_POINT('',(3.8646875,-31.3646875,1.0));
#578=VECTOR('',#678,1.0);
#579=AXIS2_PLACEMENT_3D('',#679,#680,#681);
#580=CARTESIAN_POINT('',(3.5,-5.0,4.0));
#581=CARTESIAN_POINT('',(3.5,-5.0,3.75));
#582=CARTESIAN_POINT('',(3.5,-5.0,3.875));
#583=VECTOR('',#682,1.0);
#584=CARTESIAN_POINT('',(-3.5,-5.0,4.0));
#585=AXIS2_PLACEMENT_3D('',#683,#684,#685);
#586=CARTESIAN_POINT('',(-3.5,-5.0,3.75));
#587=CARTESIAN_POINT('',(-3.5,-5.0,3.875));
#588=VECTOR('',#686,1.0);
#589=AXIS2_PLACEMENT_3D('',#687,#688,#689);
#590=AXIS2_PLACEMENT_3D('',#690,#691,#692);
#591=AXIS2_PLACEMENT_3D('',#693,#694,#695);
#592=AXIS2_PLACEMENT_3D('',#696,#697,#698);
#593=AXIS2_PLACEMENT_3D('',#699,#700,#701);
#594=AXIS2_PLACEMENT_3D('',#702,#703,#704);
#595=AXIS2_PLACEMENT_3D('',#705,#706,#707);
#596=AXIS2_PLACEMENT_3D('',#708,#709,#710);
#597=AXIS2_PLACEMENT_3D('',#711,#712,#713);
#598=AXIS2_PLACEMENT_3D('',#714,#715,#716);
#599=AXIS2_PLACEMENT_3D('',#717,#718,#719);
#600=CARTESIAN_POINT('',(4.0,-50.0,4.0));
#601=CARTESIAN_POINT('',(4.0,0.0,4.0));
#602=CARTESIAN_POINT('',(4.0,-25.0,4.0));
#603=VECTOR('',#720,1.0);
#604=CARTESIAN_POINT('',(-4.0,0.0,4.0));
#605=CARTESIAN_POINT('',(0.0,0.0,4.0));
#606=VECTOR('',#721,1.0);
#607=CARTESIAN_POINT('',(-4.0,-50.0,4.0));
#608=CARTESIAN_POINT('',(-4.0,-25.0,4.0));
#609=VECTOR('',#722,1.0);
#610=CARTESIAN_POINT('',(0.0,-50.0,4.0));
#611=VECTOR('',#723,1.0);
#612=CARTESIAN_POINT('',(4.0,0.0,-4.0));
#613=CARTESIAN_POINT('',(4.0,-50.0,-4.0));
#614=CARTESIAN_POINT('',(4.0,-25.0,-4.0));
#615=VECTOR('',#724,1.0);
#616=CARTESIAN_POINT('',(-4.0,-50.0,-4.0));
#617=CARTESIAN_POINT('',(0.0,-50.0,-4.0));
#618=VECTOR('',#725,1.0);
#619=CARTESIAN_POINT('',(-4.0,0.0,-4.0));
#620=CARTESIAN_POINT('',(-4.0,-25.0,-4.0));
#621=VECTOR('',#726,1.0);
#622=CARTESIAN_POINT('',(0.0,0.0,-4.0));
#623=VECTOR('',#727,1.0);
#624=CARTESIAN_POINT('',(-4.0,-50.0,0.0));
#625=VECTOR('',#728,1.0);
#626=CARTESIAN_POINT('',(4.0,-50.0,0.0));
#627=VECTOR('',#729,1.0);
#628=CARTESIAN_POINT('',(-4.0,0.0,0.0));
#629=VECTOR('',#730,1.0);
#630=CARTESIAN_POINT('',(4.0,0.0,0.0));
#631=VECTOR('',#731,1.0);
#632=DIRECTION('',(0.0,1.0,0.0));
#633=CARTESIAN_POINT('',(0.0,-70.0,0.0));
#634=DIRECTION('',(0.0,-1.0,0.0));
#635=DIRECTION('',(1.0,0.0,0.0));
#636=DIRECTION('',(0.0,-1.0,0.0));
#637=CARTESIAN_POINT('',(0.0,-50.0,0.0));
#638=DIRECTION('',(0.0,1.0,0.0));
#639=DIRECTION('',(1.0,0.0,0.0));
#640=DIRECTION('',(-0.707106781186547,0.707106781186548,-1.15051428160936E-016));
#641=CARTESIAN_POINT('',(-3.729375,-10.0,1.0));
#642=DIRECTION('',(1.0,0.0,0.0));
#643=DIRECTION('',(0.0,1.0,0.0));
#644=DIRECTION('',(0.707106781186547,0.707106781186548,-1.15051428160936E-016));
#645=CARTESIAN_POINT('',(-4.0,-10.0,1.0));
#646=DIRECTION('',(1.0,0.0,0.0));
#647=DIRECTION('',(0.0,1.0,0.0));
#648=DIRECTION('',(-1.0,0.0,0.0));
#649=CARTESIAN_POINT('',(3.729375,-10.0,1.0));
#650=DIRECTION('',(-1.0,0.0,0.0));
#651=DIRECTION('',(0.0,1.0,0.0));
#652=DIRECTION('',(1.0,0.0,0.0));
#653=DIRECTION('',(0.707106781186547,0.707106781186548,2.0164417386813E-016));
#654=CARTESIAN_POINT('',(3.729375,-10.0,1.0));
#655=DIRECTION('',(-1.0,0.0,0.0));
#656=DIRECTION('',(0.0,1.0,0.0));
#657=DIRECTION('',(-0.707106781186547,0.707106781186548,2.84586824537426E-017));
#658=CARTESIAN_POINT('',(4.0,-10.0,1.0));
#659=DIRECTION('',(-1.0,0.0,0.0));
#660=DIRECTION('',(0.0,1.0,0.0));
#661=DIRECTION('',(-0.707106781186548,0.707106781186547,-1.15051428160936E-016));
#662=CARTESIAN_POINT('',(-3.729375,-30.0,1.0));
#663=DIRECTION('',(1.0,0.0,0.0));
#664=DIRECTION('',(0.0,1.0,0.0));
#665=DIRECTION('',(0.707106781186548,0.707106781186547,-1.15051428160936E-016));
#666=CARTESIAN_POINT('',(-4.0,-30.0,1.0));
#667=DIRECTION('',(1.0,0.0,0.0));
#668=DIRECTION('',(0.0,1.0,0.0));
#669=DIRECTION('',(-1.0,0.0,0.0));
#670=CARTESIAN_POINT('',(3.729375,-30.0,1.0));
#671=DIRECTION('',(-1.0,0.0,0.0));
#672=DIRECTION('',(0.0,1.0,0.0));
#673=DIRECTION('',(1.0,0.0,0.0));
#674=DIRECTION('',(0.707106781186548,0.707106781186547,2.0164417386813E-016));
#675=CARTESIAN_POINT('',(3.729375,-30.0,1.0));
#676=DIRECTION('',(-1.0,0.0,0.0));
#677=DIRECTION('',(0.0,1.0,0.0));
#678=DIRECTION('',(-0.707106781186548,0.707106781186547,2.84586824537426E-017));
#679=CARTESIAN_POINT('',(4.0,-30.0,1.0));
#680=DIRECTION('',(-1.0,0.0,0.0));
#681=DIRECTION('',(0.0,1.0,0.0));
#682=DIRECTION('',(0.0,0.0,-1.0));
#683=CARTESIAN_POINT('',(0.0,-5.0,4.0));
#684=DIRECTION('',(0.0,0.0,-1.0));
#685=DIRECTION('',(1.0,0.0,0.0));
#686=DIRECTION('',(0.0,0.0,1.0));
#687=CARTESIAN_POINT('',(0.0,-5.0,3.75));
#688=DIRECTION('',(0.0,0.0,-1.0));
#689=DIRECTION('',(1.0,0.0,0.0));
#690=CARTESIAN_POINT('',(0.0,-5.0,3.75));
#691=DIRECTION('',(0.0,0.0,-1.0));
#692=DIRECTION('',(1.0,0.0,0.0));
#693=CARTESIAN_POINT('',(0.0,-5.0,4.0));
#694=DIRECTION('',(0.0,0.0,-1.0));
#695=DIRECTION('',(1.0,0.0,0.0));
#696=CARTESIAN_POINT('',(4.0,-30.0,1.0));
#697=DIRECTION('',(-1.0,0.0,0.0));
#698=DIRECTION('',(0.0,1.0,0.0));
#699=CARTESIAN_POINT('',(-3.729375,-30.0,1.0));
#700=DIRECTION('',(1.0,0.0,0.0));
#701=DIRECTION('',(0.0,1.0,0.0));
#702=CARTESIAN_POINT('',(-4.0,-30.0,1.0));
#703=DIRECTION('',(1.0,0.0,0.0));
#704=DIRECTION('',(0.0,1.0,0.0));
#705=CARTESIAN_POINT('',(4.0,-10.0,1.0));
#706=DIRECTION('',(-1.0,0.0,0.0));
#707=DIRECTION('',(0.0,1.0,0.0));
#708=CARTESIAN_POINT('',(-3.729375,-10.0,1.0));
#709=DIRECTION('',(1.0,0.0,0.0));
#710=DIRECTION('',(0.0,1.0,0.0));
#711=CARTESIAN_POINT('',(-4.0,-10.0,1.0));
#712=DIRECTION('',(1.0,0.0,0.0));
#713=DIRECTION('',(0.0,1.0,0.0));
#714=CARTESIAN_POINT('',(0.0,-50.0,0.0));
#715=DIRECTION('',(0.0,1.0,0.0));
#716=DIRECTION('',(1.0,0.0,0.0));
#717=CARTESIAN_POINT('',(0.0,-70.0,0.0));
#718=DIRECTION('',(0.0,-1.0,0.0));
#719=DIRECTION('',(1.0,0.0,0.0));
#720=DIRECTION('',(0.0,1.0,0.0));
#721=DIRECTION('',(-1.0,0.0,0.0));
#722=DIRECTION('',(0.0,-1.0,0.0));
#723=DIRECTION('',(1.0,0.0,0.0));
#724=DIRECTION('',(0.0,-1.0,0.0));
#725=DIRECTION('',(-1.0,0.0,0.0));
#726=DIRECTION('',(0.0,1.0,0.0));
#727=DIRECTION('',(1.0,0.0,0.0));
#728=DIRECTION('',(0.0,0.0,-1.0));
#729=DIRECTION('',(0.0,0.0,-1.0));
#730=DIRECTION('',(0.0,0.0,-1.0));
#731=DIRECTION('',(0.0,0.0,-1.0));
ENDSEC;
END-ISO-10303-21;
