ISO-10303-21;
HEADER;
/* Generated by software containing ST-Developer
 * from STEP Tools, Inc. (www.steptools.com) 
 */

FILE_DESCRIPTION(
/* description */ (''),
/* implementation_level */ '2;1');

FILE_NAME(
/* name */ 
'G:\\Entwicklung\\Zeichnungen\\3D\\parts - step iges\\D6.5_B_KABEL_I1S
F-D6.501N-O3U2.stp',
/* time_stamp */ '2021-08-09T11:20:07+02:00',
/* author */ ('S. Sandt'),
/* organization */ ('di-soric GmbH & Co. KG'),
/* preprocessor_version */ 'ST-DEVELOPER v18.1',
/* originating_system */ 'Autodesk Inventor 2021',
/* authorisation */ '');

FILE_SCHEMA (('AUTOMOTIVE_DESIGN { 1 0 10303 214 3 1 1 }'));
ENDSEC;

DATA;
#10=MECHANICAL_DESIGN_GEOMETRIC_PRESENTATION_REPRESENTATION('',(#13),#287);
#11=SHAPE_REPRESENTATION_RELATIONSHIP('SRR','None',#294,#12);
#12=ADVANCED_BREP_SHAPE_REPRESENTATION('',(#14),#286);
#13=STYLED_ITEM('',(#303),#14);
#14=MANIFOLD_SOLID_BREP('Volumenk\X\F6rper8',#149);
#15=FACE_BOUND('',#38,.T.);
#16=FACE_BOUND('',#44,.T.);
#17=PLANE('',#172);
#18=PLANE('',#178);
#19=PLANE('',#181);
#20=PLANE('',#185);
#21=PLANE('',#186);
#22=PLANE('',#190);
#23=FACE_OUTER_BOUND('',#33,.T.);
#24=FACE_OUTER_BOUND('',#34,.T.);
#25=FACE_OUTER_BOUND('',#35,.T.);
#26=FACE_OUTER_BOUND('',#36,.T.);
#27=FACE_OUTER_BOUND('',#37,.T.);
#28=FACE_OUTER_BOUND('',#39,.T.);
#29=FACE_OUTER_BOUND('',#40,.T.);
#30=FACE_OUTER_BOUND('',#41,.T.);
#31=FACE_OUTER_BOUND('',#42,.T.);
#32=FACE_OUTER_BOUND('',#43,.T.);
#33=EDGE_LOOP('',(#99,#100,#101,#102));
#34=EDGE_LOOP('',(#103));
#35=EDGE_LOOP('',(#104,#105,#106,#107,#108,#109,#110,#111));
#36=EDGE_LOOP('',(#112,#113,#114));
#37=EDGE_LOOP('',(#115));
#38=EDGE_LOOP('',(#116));
#39=EDGE_LOOP('',(#117,#118,#119,#120,#121,#122,#123,#124));
#40=EDGE_LOOP('',(#125));
#41=EDGE_LOOP('',(#126));
#42=EDGE_LOOP('',(#127,#128,#129,#130));
#43=EDGE_LOOP('',(#131));
#44=EDGE_LOOP('',(#132,#133,#134));
#45=LINE('',#248,#51);
#46=LINE('',#255,#52);
#47=LINE('',#259,#53);
#48=LINE('',#263,#54);
#49=LINE('',#273,#55);
#50=LINE('',#282,#56);
#51=VECTOR('',#197,1.45);
#52=VECTOR('',#206,3.09);
#53=VECTOR('',#209,10.);
#54=VECTOR('',#212,10.);
#55=VECTOR('',#227,3.09);
#56=VECTOR('',#240,3.25);
#57=CIRCLE('',#170,1.45);
#58=CIRCLE('',#171,1.45);
#59=CIRCLE('',#174,3.09);
#60=CIRCLE('',#175,3.09);
#61=CIRCLE('',#176,3.09);
#62=CIRCLE('',#177,3.09);
#63=CIRCLE('',#179,3.09);
#64=CIRCLE('',#180,3.09);
#65=CIRCLE('',#183,3.09);
#66=CIRCLE('',#184,3.09);
#67=CIRCLE('',#187,3.25);
#68=CIRCLE('',#189,3.25);
#69=VERTEX_POINT('',#245);
#70=VERTEX_POINT('',#247);
#71=VERTEX_POINT('',#252);
#72=VERTEX_POINT('',#254);
#73=VERTEX_POINT('',#256);
#74=VERTEX_POINT('',#258);
#75=VERTEX_POINT('',#260);
#76=VERTEX_POINT('',#262);
#77=VERTEX_POINT('',#266);
#78=VERTEX_POINT('',#271);
#79=VERTEX_POINT('',#277);
#80=VERTEX_POINT('',#280);
#81=EDGE_CURVE('',#69,#69,#57,.T.);
#82=EDGE_CURVE('',#69,#70,#45,.T.);
#83=EDGE_CURVE('',#70,#70,#58,.T.);
#84=EDGE_CURVE('',#71,#71,#59,.T.);
#85=EDGE_CURVE('',#71,#72,#46,.T.);
#86=EDGE_CURVE('',#73,#72,#60,.T.);
#87=EDGE_CURVE('',#74,#73,#47,.T.);
#88=EDGE_CURVE('',#75,#74,#61,.T.);
#89=EDGE_CURVE('',#76,#75,#48,.T.);
#90=EDGE_CURVE('',#72,#76,#62,.T.);
#91=EDGE_CURVE('',#75,#77,#63,.T.);
#92=EDGE_CURVE('',#77,#74,#64,.T.);
#93=EDGE_CURVE('',#78,#78,#65,.T.);
#94=EDGE_CURVE('',#78,#77,#49,.T.);
#95=EDGE_CURVE('',#76,#73,#66,.T.);
#96=EDGE_CURVE('',#79,#79,#67,.T.);
#97=EDGE_CURVE('',#80,#80,#68,.T.);
#98=EDGE_CURVE('',#80,#79,#50,.T.);
#99=ORIENTED_EDGE('',*,*,#81,.T.);
#100=ORIENTED_EDGE('',*,*,#82,.T.);
#101=ORIENTED_EDGE('',*,*,#83,.F.);
#102=ORIENTED_EDGE('',*,*,#82,.F.);
#103=ORIENTED_EDGE('',*,*,#81,.F.);
#104=ORIENTED_EDGE('',*,*,#84,.T.);
#105=ORIENTED_EDGE('',*,*,#85,.T.);
#106=ORIENTED_EDGE('',*,*,#86,.F.);
#107=ORIENTED_EDGE('',*,*,#87,.F.);
#108=ORIENTED_EDGE('',*,*,#88,.F.);
#109=ORIENTED_EDGE('',*,*,#89,.F.);
#110=ORIENTED_EDGE('',*,*,#90,.F.);
#111=ORIENTED_EDGE('',*,*,#85,.F.);
#112=ORIENTED_EDGE('',*,*,#91,.F.);
#113=ORIENTED_EDGE('',*,*,#88,.T.);
#114=ORIENTED_EDGE('',*,*,#92,.F.);
#115=ORIENTED_EDGE('',*,*,#84,.F.);
#116=ORIENTED_EDGE('',*,*,#83,.T.);
#117=ORIENTED_EDGE('',*,*,#93,.T.);
#118=ORIENTED_EDGE('',*,*,#94,.T.);
#119=ORIENTED_EDGE('',*,*,#92,.T.);
#120=ORIENTED_EDGE('',*,*,#87,.T.);
#121=ORIENTED_EDGE('',*,*,#95,.F.);
#122=ORIENTED_EDGE('',*,*,#89,.T.);
#123=ORIENTED_EDGE('',*,*,#91,.T.);
#124=ORIENTED_EDGE('',*,*,#94,.F.);
#125=ORIENTED_EDGE('',*,*,#93,.F.);
#126=ORIENTED_EDGE('',*,*,#96,.T.);
#127=ORIENTED_EDGE('',*,*,#97,.T.);
#128=ORIENTED_EDGE('',*,*,#98,.T.);
#129=ORIENTED_EDGE('',*,*,#96,.F.);
#130=ORIENTED_EDGE('',*,*,#98,.F.);
#131=ORIENTED_EDGE('',*,*,#97,.F.);
#132=ORIENTED_EDGE('',*,*,#86,.T.);
#133=ORIENTED_EDGE('',*,*,#90,.T.);
#134=ORIENTED_EDGE('',*,*,#95,.T.);
#135=CYLINDRICAL_SURFACE('',#169,1.45);
#136=CYLINDRICAL_SURFACE('',#173,3.09);
#137=CYLINDRICAL_SURFACE('',#182,3.09);
#138=CYLINDRICAL_SURFACE('',#188,3.25);
#139=ADVANCED_FACE('',(#23),#135,.T.);
#140=ADVANCED_FACE('',(#24),#17,.F.);
#141=ADVANCED_FACE('',(#25),#136,.T.);
#142=ADVANCED_FACE('',(#26),#18,.T.);
#143=ADVANCED_FACE('',(#27,#15),#19,.F.);
#144=ADVANCED_FACE('',(#28),#137,.F.);
#145=ADVANCED_FACE('',(#29),#20,.F.);
#146=ADVANCED_FACE('',(#30),#21,.T.);
#147=ADVANCED_FACE('',(#31),#138,.T.);
#148=ADVANCED_FACE('',(#32,#16),#22,.F.);
#149=CLOSED_SHELL('',(#139,#140,#141,#142,#143,#144,#145,#146,#147,#148));
#150=DERIVED_UNIT_ELEMENT(#152,1.);
#151=DERIVED_UNIT_ELEMENT(#289,-3.);
#152=(
MASS_UNIT()
NAMED_UNIT(*)
SI_UNIT($,.GRAM.)
);
#153=DERIVED_UNIT((#150,#151));
#154=MEASURE_REPRESENTATION_ITEM('density measure',
POSITIVE_RATIO_MEASURE(1.),#153);
#155=PROPERTY_DEFINITION_REPRESENTATION(#160,#157);
#156=PROPERTY_DEFINITION_REPRESENTATION(#161,#158);
#157=REPRESENTATION('material name',(#159),#286);
#158=REPRESENTATION('density',(#154),#286);
#159=DESCRIPTIVE_REPRESENTATION_ITEM('Allgemein','Allgemein');
#160=PROPERTY_DEFINITION('material property','material name',#296);
#161=PROPERTY_DEFINITION('material property','density of part',#296);
#162=DATE_TIME_ROLE('creation_date');
#163=APPLIED_DATE_AND_TIME_ASSIGNMENT(#164,#162,(#296));
#164=DATE_AND_TIME(#165,#166);
#165=CALENDAR_DATE(2021,9,8);
#166=LOCAL_TIME(0,0,0.,#167);
#167=COORDINATED_UNIVERSAL_TIME_OFFSET(0,0,.BEHIND.);
#168=AXIS2_PLACEMENT_3D('placement',#243,#191,#192);
#169=AXIS2_PLACEMENT_3D('',#244,#193,#194);
#170=AXIS2_PLACEMENT_3D('',#246,#195,#196);
#171=AXIS2_PLACEMENT_3D('',#249,#198,#199);
#172=AXIS2_PLACEMENT_3D('',#250,#200,#201);
#173=AXIS2_PLACEMENT_3D('',#251,#202,#203);
#174=AXIS2_PLACEMENT_3D('',#253,#204,#205);
#175=AXIS2_PLACEMENT_3D('',#257,#207,#208);
#176=AXIS2_PLACEMENT_3D('',#261,#210,#211);
#177=AXIS2_PLACEMENT_3D('',#264,#213,#214);
#178=AXIS2_PLACEMENT_3D('',#265,#215,#216);
#179=AXIS2_PLACEMENT_3D('',#267,#217,#218);
#180=AXIS2_PLACEMENT_3D('',#268,#219,#220);
#181=AXIS2_PLACEMENT_3D('',#269,#221,#222);
#182=AXIS2_PLACEMENT_3D('',#270,#223,#224);
#183=AXIS2_PLACEMENT_3D('',#272,#225,#226);
#184=AXIS2_PLACEMENT_3D('',#274,#228,#229);
#185=AXIS2_PLACEMENT_3D('',#275,#230,#231);
#186=AXIS2_PLACEMENT_3D('',#276,#232,#233);
#187=AXIS2_PLACEMENT_3D('',#278,#234,#235);
#188=AXIS2_PLACEMENT_3D('',#279,#236,#237);
#189=AXIS2_PLACEMENT_3D('',#281,#238,#239);
#190=AXIS2_PLACEMENT_3D('',#283,#241,#242);
#191=DIRECTION('axis',(0.,0.,1.));
#192=DIRECTION('refdir',(1.,0.,0.));
#193=DIRECTION('center_axis',(0.,0.,-1.));
#194=DIRECTION('ref_axis',(-1.,0.,0.));
#195=DIRECTION('center_axis',(0.,0.,1.));
#196=DIRECTION('ref_axis',(1.,0.,0.));
#197=DIRECTION('',(0.,0.,1.));
#198=DIRECTION('center_axis',(0.,0.,1.));
#199=DIRECTION('ref_axis',(-1.,0.,0.));
#200=DIRECTION('center_axis',(0.,0.,1.));
#201=DIRECTION('ref_axis',(1.,0.,0.));
#202=DIRECTION('center_axis',(0.,0.,-1.));
#203=DIRECTION('ref_axis',(-1.,0.,0.));
#204=DIRECTION('center_axis',(0.,0.,1.));
#205=DIRECTION('ref_axis',(1.,0.,0.));
#206=DIRECTION('',(0.,0.,1.));
#207=DIRECTION('center_axis',(0.,0.,1.));
#208=DIRECTION('ref_axis',(-1.,0.,0.));
#209=DIRECTION('',(0.,0.,-1.));
#210=DIRECTION('center_axis',(0.,0.,1.));
#211=DIRECTION('ref_axis',(1.,0.,0.));
#212=DIRECTION('',(0.,0.,1.));
#213=DIRECTION('center_axis',(0.,0.,1.));
#214=DIRECTION('ref_axis',(-1.,0.,0.));
#215=DIRECTION('center_axis',(0.,0.,1.));
#216=DIRECTION('ref_axis',(1.,0.,0.));
#217=DIRECTION('center_axis',(0.,0.,-1.));
#218=DIRECTION('ref_axis',(-1.,0.,0.));
#219=DIRECTION('center_axis',(0.,0.,-1.));
#220=DIRECTION('ref_axis',(-1.,0.,0.));
#221=DIRECTION('center_axis',(0.,0.,1.));
#222=DIRECTION('ref_axis',(1.,0.,0.));
#223=DIRECTION('center_axis',(0.,0.,-1.));
#224=DIRECTION('ref_axis',(-1.,0.,0.));
#225=DIRECTION('center_axis',(0.,0.,1.));
#226=DIRECTION('ref_axis',(1.,0.,0.));
#227=DIRECTION('',(0.,0.,-1.));
#228=DIRECTION('center_axis',(0.,0.,1.));
#229=DIRECTION('ref_axis',(1.,0.,0.));
#230=DIRECTION('center_axis',(0.,0.,1.));
#231=DIRECTION('ref_axis',(1.,0.,0.));
#232=DIRECTION('center_axis',(0.,0.,1.));
#233=DIRECTION('ref_axis',(1.,0.,0.));
#234=DIRECTION('center_axis',(0.,0.,1.));
#235=DIRECTION('ref_axis',(1.,0.,0.));
#236=DIRECTION('center_axis',(0.,0.,-1.));
#237=DIRECTION('ref_axis',(-1.,0.,0.));
#238=DIRECTION('center_axis',(0.,0.,1.));
#239=DIRECTION('ref_axis',(1.,0.,0.));
#240=DIRECTION('',(0.,0.,1.));
#241=DIRECTION('center_axis',(0.,0.,1.));
#242=DIRECTION('ref_axis',(1.,0.,0.));
#243=CARTESIAN_POINT('',(0.,0.,0.));
#244=CARTESIAN_POINT('Origin',(0.15238999034766,-0.115818538855455,22.5375398633935));
#245=CARTESIAN_POINT('',(1.60238999034766,-0.115818538855455,-4.46246013660653));
#246=CARTESIAN_POINT('Origin',(0.15238999034766,-0.115818538855455,-4.46246013660653));
#247=CARTESIAN_POINT('',(1.60238999034766,-0.115818538855455,22.4958778058613));
#248=CARTESIAN_POINT('',(1.60238999034766,-0.115818538855455,22.5375398633935));
#249=CARTESIAN_POINT('Origin',(0.15238999034766,-0.115818538855455,22.4958778058613));
#250=CARTESIAN_POINT('Origin',(0.15238999034766,-0.115818538855455,-4.46246013660653));
#251=CARTESIAN_POINT('Origin',(-0.636671668458712,-0.132156808968105,22.6958778058613));
#252=CARTESIAN_POINT('',(2.45332833154129,-0.132156808968106,22.4958778058613));
#253=CARTESIAN_POINT('Origin',(-0.636671668458712,-0.132156808968105,22.4958778058613));
#254=CARTESIAN_POINT('',(2.45332833154129,-0.132156808968106,22.5));
#255=CARTESIAN_POINT('',(2.45332833154129,-0.132156808968106,22.6958778058613));
#256=CARTESIAN_POINT('',(0.999930668379198,-2.75315524297311,22.5));
#257=CARTESIAN_POINT('Origin',(-0.636671668458712,-0.132156808968105,22.5));
#258=CARTESIAN_POINT('',(0.999930668379198,-2.75315524297311,22.6958778058613));
#259=CARTESIAN_POINT('',(0.999930668379198,-2.75315524297311,22.6958778058613));
#260=CARTESIAN_POINT('',(-2.28362274649687,2.48235120336404,22.6958778058613));
#261=CARTESIAN_POINT('Origin',(-0.636671668458712,-0.132156808968105,22.6958778058613));
#262=CARTESIAN_POINT('',(-2.28362274649687,2.48235120336404,22.5));
#263=CARTESIAN_POINT('',(-2.28362274649687,2.48235120336404,22.6958778058613));
#264=CARTESIAN_POINT('Origin',(-0.636671668458712,-0.132156808968105,22.5));
#265=CARTESIAN_POINT('Origin',(-0.636671668458712,-0.132156808968105,22.6958778058613));
#266=CARTESIAN_POINT('',(2.44297959034124,-0.13864723064085,22.6958778058613));
#267=CARTESIAN_POINT('Origin',(-0.647020409658763,-0.138647230640849,22.6958778058613));
#268=CARTESIAN_POINT('Origin',(-0.647020409658763,-0.138647230640849,22.6958778058613));
#269=CARTESIAN_POINT('Origin',(-0.636671668458712,-0.132156808968105,22.4958778058613));
#270=CARTESIAN_POINT('Origin',(-0.647020409658763,-0.138647230640849,67.5));
#271=CARTESIAN_POINT('',(2.44297959034124,-0.13864723064085,67.5));
#272=CARTESIAN_POINT('Origin',(-0.647020409658763,-0.138647230640849,67.5));
#273=CARTESIAN_POINT('',(2.44297959034124,-0.13864723064085,67.5));
#274=CARTESIAN_POINT('Origin',(-0.647020409658763,-0.138647230640849,22.5));
#275=CARTESIAN_POINT('Origin',(-0.647020409658763,-0.138647230640849,67.5));
#276=CARTESIAN_POINT('Origin',(-0.647020409658763,-0.138647230640849,67.8));
#277=CARTESIAN_POINT('',(2.60297959034124,-0.13864723064085,67.8));
#278=CARTESIAN_POINT('Origin',(-0.647020409658763,-0.138647230640849,67.8));
#279=CARTESIAN_POINT('Origin',(-0.647020409658763,-0.138647230640849,67.5));
#280=CARTESIAN_POINT('',(2.60297959034124,-0.13864723064085,22.5));
#281=CARTESIAN_POINT('Origin',(-0.647020409658763,-0.138647230640849,22.5));
#282=CARTESIAN_POINT('',(2.60297959034124,-0.13864723064085,67.5));
#283=CARTESIAN_POINT('Origin',(-0.647020409658763,-0.138647230640849,22.5));
#284=UNCERTAINTY_MEASURE_WITH_UNIT(LENGTH_MEASURE(0.01),#288,
'DISTANCE_ACCURACY_VALUE',
'Maximum model space distance between geometric entities at asserted c
onnectivities');
#285=UNCERTAINTY_MEASURE_WITH_UNIT(LENGTH_MEASURE(0.01),#288,
'DISTANCE_ACCURACY_VALUE',
'Maximum model space distance between geometric entities at asserted c
onnectivities');
#286=(
GEOMETRIC_REPRESENTATION_CONTEXT(3)
GLOBAL_UNCERTAINTY_ASSIGNED_CONTEXT((#284))
GLOBAL_UNIT_ASSIGNED_CONTEXT((#288,#290,#291))
REPRESENTATION_CONTEXT('','3D')
);
#287=(
GEOMETRIC_REPRESENTATION_CONTEXT(3)
GLOBAL_UNCERTAINTY_ASSIGNED_CONTEXT((#285))
GLOBAL_UNIT_ASSIGNED_CONTEXT((#288,#290,#291))
REPRESENTATION_CONTEXT('','3D')
);
#288=(
LENGTH_UNIT()
NAMED_UNIT(*)
SI_UNIT(.MILLI.,.METRE.)
);
#289=(
LENGTH_UNIT()
NAMED_UNIT(*)
SI_UNIT(.CENTI.,.METRE.)
);
#290=(
NAMED_UNIT(*)
PLANE_ANGLE_UNIT()
SI_UNIT($,.RADIAN.)
);
#291=(
NAMED_UNIT(*)
SI_UNIT($,.STERADIAN.)
SOLID_ANGLE_UNIT()
);
#292=SHAPE_DEFINITION_REPRESENTATION(#293,#294);
#293=PRODUCT_DEFINITION_SHAPE('',$,#296);
#294=SHAPE_REPRESENTATION('',(#168),#286);
#295=PRODUCT_DEFINITION_CONTEXT('part definition',#300,'design');
#296=PRODUCT_DEFINITION('Bauteil48','Bauteil48',#297,#295);
#297=PRODUCT_DEFINITION_FORMATION('',$,#302);
#298=PRODUCT_RELATED_PRODUCT_CATEGORY('Bauteil48','Bauteil48',(#302));
#299=APPLICATION_PROTOCOL_DEFINITION('international standard',
'automotive_design',2009,#300);
#300=APPLICATION_CONTEXT(
'Core Data for Automotive Mechanical Design Process');
#301=PRODUCT_CONTEXT('part definition',#300,'mechanical');
#302=PRODUCT('Bauteil48','Bauteil48',$,(#301));
#303=PRESENTATION_STYLE_ASSIGNMENT((#304));
#304=SURFACE_STYLE_USAGE(.BOTH.,#307);
#305=SURFACE_STYLE_RENDERING_WITH_PROPERTIES($,#311,(#306));
#306=SURFACE_STYLE_TRANSPARENT(0.);
#307=SURFACE_SIDE_STYLE('',(#308,#305));
#308=SURFACE_STYLE_FILL_AREA(#309);
#309=FILL_AREA_STYLE('',(#310));
#310=FILL_AREA_STYLE_COLOUR('',#311);
#311=COLOUR_RGB('',0.749019607843137,0.749019607843137,0.749019607843137);
ENDSEC;
END-ISO-10303-21;
