ISO-10303-21;
HEADER;
/* Generated by software containing ST-Developer
 * from STEP Tools, Inc. (www.steptools.com) 
 */

FILE_DESCRIPTION(
/* description */ (''),
/* implementation_level */ '2;1');

FILE_NAME(
/* name */ 
'G:\\Entwicklung\\Zeichnungen\\3D\\parts - step iges\\D4_B_KABEL_I1SF-
D0401N-O3U2.stp',
/* time_stamp */ '2021-08-09T11:04:45+02:00',
/* author */ ('S. Sandt'),
/* organization */ ('di-soric GmbH & Co. KG'),
/* preprocessor_version */ 'ST-DEVELOPER v18.1',
/* originating_system */ 'Autodesk Inventor 2021',
/* authorisation */ '');

FILE_SCHEMA (('AUTOMOTIVE_DESIGN { 1 0 10303 214 3 1 1 }'));
ENDSEC;

DATA;
#10=MECHANICAL_DESIGN_GEOMETRIC_PRESENTATION_REPRESENTATION('',(#13),#439);
#11=SHAPE_REPRESENTATION_RELATIONSHIP('SRR','None',#446,#12);
#12=ADVANCED_BREP_SHAPE_REPRESENTATION('',(#184),#438);
#13=STYLED_ITEM('',(#455),#184);
#14=ORIENTED_CLOSED_SHELL('',*,#182,.F.);
#15=SPHERICAL_SURFACE('',#208,0.85);
#16=SPHERICAL_SURFACE('',#223,0.85);
#17=FACE_BOUND('',#56,.T.);
#18=FACE_BOUND('',#61,.T.);
#19=FACE_BOUND('',#66,.T.);
#20=FACE_BOUND('',#69,.T.);
#21=B_SPLINE_CURVE_WITH_KNOTS('',3,(#295,#296,#297,#298,#299,#300,#301,
#302,#303,#304,#305,#306,#307,#308),.UNSPECIFIED.,.F.,.F.,(4,2,2,2,2,2,
4),(0.,0.0273927154864377,0.0547854309728754,0.0808867176679213,0.102788658534102,
0.124690599400283,0.124749951819366),.UNSPECIFIED.);
#22=B_SPLINE_CURVE_WITH_KNOTS('',3,(#309,#310,#311,#312,#313,#314,#315,
#316,#317,#318,#319,#320,#321,#322,#323,#324,#325,#326,#327,#328,#329,#330,
#331,#332,#333,#334,#335,#336,#337,#338,#339,#340),.UNSPECIFIED.,.F.,.F.,
(4,2,2,2,2,2,2,2,2,2,2,2,2,2,2,4),(0.124749951819366,0.146592540266464,
0.168494481132645,0.194595767827691,0.221988483314129,0.249381198800567,
0.276773914287004,0.304166629773442,0.330267916468488,0.352169857334669,
0.37407179820085,0.395973739067031,0.417875679933212,0.443976966628258,
0.471369682114696,0.498762397601134),.UNSPECIFIED.);
#23=B_SPLINE_CURVE_WITH_KNOTS('',3,(#367,#368,#369,#370,#371,#372,#373),
 .UNSPECIFIED.,.F.,.F.,(4,3,4),(-0.0170339164961266,0.,0.000319005751308616),
 .UNSPECIFIED.);
#24=B_SPLINE_CURVE_WITH_KNOTS('',3,(#377,#378,#379,#380),.UNSPECIFIED.,
 .F.,.F.,(4,4),(0.000319005751308616,0.0139648404418603),.UNSPECIFIED.);
#25=B_SPLINE_CURVE_WITH_KNOTS('',3,(#381,#382,#383,#384,#385,#386,#387,
#388,#389,#390,#391,#392,#393,#394,#395,#396,#397,#398,#399,#400,#401,#402,
#403,#404,#405,#406,#407,#408,#409,#410,#411,#412,#413,#414,#415,#416,#417,
#418,#419,#420,#421,#422,#423),.UNSPECIFIED.,.F.,.F.,(4,2,2,2,2,2,2,2,2,
2,2,2,2,2,2,3,2,2,2,2,4),(0.132568001890547,0.14049408512655,0.161781017953421,
0.186786413090651,0.212600358845004,0.238414304599357,0.26422825035371,
0.290042196108063,0.315047591245293,0.336334524072164,0.357621456899035,
0.378908389725907,0.400195322552778,0.425200717690008,0.451014663444361,
0.476828609198714,0.502642554953067,0.52845650070742,0.55346189584465,0.574748828671521,
0.5789406978278),.UNSPECIFIED.);
#26=B_SPLINE_CURVE_WITH_KNOTS('',3,(#428,#429,#430,#431,#432,#433),
 .UNSPECIFIED.,.F.,.F.,(4,2,4),(0.328672870716859,0.342679037056606,0.359773851258611),
 .UNSPECIFIED.);
#27=LINE('',#292,#31);
#28=LINE('',#349,#32);
#29=LINE('',#360,#33);
#30=LINE('',#427,#34);
#31=VECTOR('',#239,1.9);
#32=VECTOR('',#250,0.75);
#33=VECTOR('',#267,1.45);
#34=VECTOR('',#280,2.);
#35=CYLINDRICAL_SURFACE('',#206,1.9);
#36=CYLINDRICAL_SURFACE('',#211,0.75);
#37=CYLINDRICAL_SURFACE('',#219,1.45);
#38=CYLINDRICAL_SURFACE('',#225,2.);
#39=CYLINDRICAL_SURFACE('',#227,0.750000000000001);
#40=FACE_OUTER_BOUND('',#54,.T.);
#41=FACE_OUTER_BOUND('',#55,.T.);
#42=FACE_OUTER_BOUND('',#57,.T.);
#43=FACE_OUTER_BOUND('',#58,.T.);
#44=FACE_OUTER_BOUND('',#59,.T.);
#45=FACE_OUTER_BOUND('',#60,.T.);
#46=FACE_OUTER_BOUND('',#62,.T.);
#47=FACE_OUTER_BOUND('',#63,.T.);
#48=FACE_OUTER_BOUND('',#64,.T.);
#49=FACE_OUTER_BOUND('',#65,.T.);
#50=FACE_OUTER_BOUND('',#67,.T.);
#51=FACE_OUTER_BOUND('',#68,.T.);
#52=FACE_OUTER_BOUND('',#70,.T.);
#53=FACE_OUTER_BOUND('',#71,.T.);
#54=EDGE_LOOP('',(#119));
#55=EDGE_LOOP('',(#120,#121,#122,#123));
#56=EDGE_LOOP('',(#124,#125));
#57=EDGE_LOOP('',(#126,#127,#128,#129,#130));
#58=EDGE_LOOP('',(#131,#132,#133,#134));
#59=EDGE_LOOP('',(#135));
#60=EDGE_LOOP('',(#136));
#61=EDGE_LOOP('',(#137));
#62=EDGE_LOOP('',(#138));
#63=EDGE_LOOP('',(#139));
#64=EDGE_LOOP('',(#140,#141,#142,#143));
#65=EDGE_LOOP('',(#144));
#66=EDGE_LOOP('',(#145));
#67=EDGE_LOOP('',(#146,#147,#148,#149,#150));
#68=EDGE_LOOP('',(#151,#152,#153,#154));
#69=EDGE_LOOP('',(#155,#156));
#70=EDGE_LOOP('',(#157,#158,#159));
#71=EDGE_LOOP('',(#160));
#72=CIRCLE('',#205,1.9);
#73=CIRCLE('',#207,1.9);
#74=CIRCLE('',#209,0.85);
#75=CIRCLE('',#210,0.85);
#76=CIRCLE('',#212,0.75);
#77=CIRCLE('',#213,0.75);
#78=CIRCLE('',#218,1.45);
#79=CIRCLE('',#220,1.45);
#80=CIRCLE('',#222,2.);
#81=CIRCLE('',#224,0.85);
#82=CIRCLE('',#226,2.);
#83=VERTEX_POINT('',#287);
#84=VERTEX_POINT('',#290);
#85=VERTEX_POINT('',#293);
#86=VERTEX_POINT('',#294);
#87=VERTEX_POINT('',#342);
#88=VERTEX_POINT('',#346);
#89=VERTEX_POINT('',#348);
#90=VERTEX_POINT('',#355);
#91=VERTEX_POINT('',#358);
#92=VERTEX_POINT('',#362);
#93=VERTEX_POINT('',#365);
#94=VERTEX_POINT('',#366);
#95=VERTEX_POINT('',#374);
#96=VERTEX_POINT('',#376);
#97=VERTEX_POINT('',#425);
#98=EDGE_CURVE('',#83,#83,#72,.T.);
#99=EDGE_CURVE('',#84,#84,#73,.T.);
#100=EDGE_CURVE('',#84,#83,#27,.T.);
#101=EDGE_CURVE('',#85,#86,#21,.T.);
#102=EDGE_CURVE('',#86,#85,#22,.T.);
#103=EDGE_CURVE('',#87,#87,#74,.T.);
#104=EDGE_CURVE('',#87,#86,#75,.T.);
#105=EDGE_CURVE('',#88,#88,#76,.T.);
#106=EDGE_CURVE('',#88,#89,#28,.T.);
#107=EDGE_CURVE('',#89,#89,#77,.T.);
#108=EDGE_CURVE('',#90,#90,#78,.T.);
#109=EDGE_CURVE('',#91,#91,#79,.T.);
#110=EDGE_CURVE('',#91,#90,#29,.T.);
#111=EDGE_CURVE('',#92,#92,#80,.T.);
#112=EDGE_CURVE('',#93,#94,#23,.T.);
#113=EDGE_CURVE('',#94,#95,#81,.T.);
#114=EDGE_CURVE('',#94,#96,#24,.T.);
#115=EDGE_CURVE('',#96,#93,#25,.T.);
#116=EDGE_CURVE('',#97,#97,#82,.T.);
#117=EDGE_CURVE('',#97,#92,#30,.T.);
#118=EDGE_CURVE('',#96,#93,#26,.T.);
#119=ORIENTED_EDGE('',*,*,#98,.T.);
#120=ORIENTED_EDGE('',*,*,#99,.T.);
#121=ORIENTED_EDGE('',*,*,#100,.T.);
#122=ORIENTED_EDGE('',*,*,#98,.F.);
#123=ORIENTED_EDGE('',*,*,#100,.F.);
#124=ORIENTED_EDGE('',*,*,#101,.F.);
#125=ORIENTED_EDGE('',*,*,#102,.F.);
#126=ORIENTED_EDGE('',*,*,#103,.T.);
#127=ORIENTED_EDGE('',*,*,#104,.T.);
#128=ORIENTED_EDGE('',*,*,#102,.T.);
#129=ORIENTED_EDGE('',*,*,#101,.T.);
#130=ORIENTED_EDGE('',*,*,#104,.F.);
#131=ORIENTED_EDGE('',*,*,#105,.F.);
#132=ORIENTED_EDGE('',*,*,#106,.T.);
#133=ORIENTED_EDGE('',*,*,#107,.F.);
#134=ORIENTED_EDGE('',*,*,#106,.F.);
#135=ORIENTED_EDGE('',*,*,#107,.T.);
#136=ORIENTED_EDGE('',*,*,#103,.F.);
#137=ORIENTED_EDGE('',*,*,#105,.T.);
#138=ORIENTED_EDGE('',*,*,#99,.F.);
#139=ORIENTED_EDGE('',*,*,#108,.T.);
#140=ORIENTED_EDGE('',*,*,#109,.T.);
#141=ORIENTED_EDGE('',*,*,#110,.T.);
#142=ORIENTED_EDGE('',*,*,#108,.F.);
#143=ORIENTED_EDGE('',*,*,#110,.F.);
#144=ORIENTED_EDGE('',*,*,#111,.T.);
#145=ORIENTED_EDGE('',*,*,#109,.F.);
#146=ORIENTED_EDGE('',*,*,#112,.T.);
#147=ORIENTED_EDGE('',*,*,#113,.T.);
#148=ORIENTED_EDGE('',*,*,#113,.F.);
#149=ORIENTED_EDGE('',*,*,#114,.T.);
#150=ORIENTED_EDGE('',*,*,#115,.T.);
#151=ORIENTED_EDGE('',*,*,#116,.T.);
#152=ORIENTED_EDGE('',*,*,#117,.T.);
#153=ORIENTED_EDGE('',*,*,#111,.F.);
#154=ORIENTED_EDGE('',*,*,#117,.F.);
#155=ORIENTED_EDGE('',*,*,#115,.F.);
#156=ORIENTED_EDGE('',*,*,#118,.T.);
#157=ORIENTED_EDGE('',*,*,#112,.F.);
#158=ORIENTED_EDGE('',*,*,#118,.F.);
#159=ORIENTED_EDGE('',*,*,#114,.F.);
#160=ORIENTED_EDGE('',*,*,#116,.F.);
#161=PLANE('',#204);
#162=PLANE('',#214);
#163=PLANE('',#215);
#164=PLANE('',#216);
#165=PLANE('',#217);
#166=PLANE('',#221);
#167=PLANE('',#228);
#168=ADVANCED_FACE('',(#40),#161,.T.);
#169=ADVANCED_FACE('',(#41,#17),#35,.F.);
#170=ADVANCED_FACE('',(#42),#15,.T.);
#171=ADVANCED_FACE('',(#43),#36,.T.);
#172=ADVANCED_FACE('',(#44),#162,.T.);
#173=ADVANCED_FACE('',(#45,#18),#163,.F.);
#174=ADVANCED_FACE('',(#46),#164,.F.);
#175=ADVANCED_FACE('',(#47),#165,.T.);
#176=ADVANCED_FACE('',(#48),#37,.T.);
#177=ADVANCED_FACE('',(#49,#19),#166,.T.);
#178=ADVANCED_FACE('',(#50),#16,.T.);
#179=ADVANCED_FACE('',(#51,#20),#38,.T.);
#180=ADVANCED_FACE('',(#52),#39,.F.);
#181=ADVANCED_FACE('',(#53),#167,.F.);
#182=CLOSED_SHELL('',(#168,#169,#170,#171,#172,#173,#174));
#183=CLOSED_SHELL('',(#175,#176,#177,#178,#179,#180,#181));
#184=BREP_WITH_VOIDS('Volumenk\X\F6rper8',#183,(#14));
#185=DERIVED_UNIT_ELEMENT(#187,1.);
#186=DERIVED_UNIT_ELEMENT(#441,-3.);
#187=(
MASS_UNIT()
NAMED_UNIT(*)
SI_UNIT($,.GRAM.)
);
#188=DERIVED_UNIT((#185,#186));
#189=MEASURE_REPRESENTATION_ITEM('density measure',
POSITIVE_RATIO_MEASURE(1.),#188);
#190=PROPERTY_DEFINITION_REPRESENTATION(#195,#192);
#191=PROPERTY_DEFINITION_REPRESENTATION(#196,#193);
#192=REPRESENTATION('material name',(#194),#438);
#193=REPRESENTATION('density',(#189),#438);
#194=DESCRIPTIVE_REPRESENTATION_ITEM('Allgemein','Allgemein');
#195=PROPERTY_DEFINITION('material property','material name',#448);
#196=PROPERTY_DEFINITION('material property','density of part',#448);
#197=DATE_TIME_ROLE('creation_date');
#198=APPLIED_DATE_AND_TIME_ASSIGNMENT(#199,#197,(#448));
#199=DATE_AND_TIME(#200,#201);
#200=CALENDAR_DATE(2021,9,8);
#201=LOCAL_TIME(0,0,0.,#202);
#202=COORDINATED_UNIVERSAL_TIME_OFFSET(0,0,.BEHIND.);
#203=AXIS2_PLACEMENT_3D('placement',#285,#229,#230);
#204=AXIS2_PLACEMENT_3D('',#286,#231,#232);
#205=AXIS2_PLACEMENT_3D('',#288,#233,#234);
#206=AXIS2_PLACEMENT_3D('',#289,#235,#236);
#207=AXIS2_PLACEMENT_3D('',#291,#237,#238);
#208=AXIS2_PLACEMENT_3D('',#341,#240,#241);
#209=AXIS2_PLACEMENT_3D('',#343,#242,#243);
#210=AXIS2_PLACEMENT_3D('',#344,#244,#245);
#211=AXIS2_PLACEMENT_3D('',#345,#246,#247);
#212=AXIS2_PLACEMENT_3D('',#347,#248,#249);
#213=AXIS2_PLACEMENT_3D('',#350,#251,#252);
#214=AXIS2_PLACEMENT_3D('',#351,#253,#254);
#215=AXIS2_PLACEMENT_3D('',#352,#255,#256);
#216=AXIS2_PLACEMENT_3D('',#353,#257,#258);
#217=AXIS2_PLACEMENT_3D('',#354,#259,#260);
#218=AXIS2_PLACEMENT_3D('',#356,#261,#262);
#219=AXIS2_PLACEMENT_3D('',#357,#263,#264);
#220=AXIS2_PLACEMENT_3D('',#359,#265,#266);
#221=AXIS2_PLACEMENT_3D('',#361,#268,#269);
#222=AXIS2_PLACEMENT_3D('',#363,#270,#271);
#223=AXIS2_PLACEMENT_3D('',#364,#272,#273);
#224=AXIS2_PLACEMENT_3D('',#375,#274,#275);
#225=AXIS2_PLACEMENT_3D('',#424,#276,#277);
#226=AXIS2_PLACEMENT_3D('',#426,#278,#279);
#227=AXIS2_PLACEMENT_3D('',#434,#281,#282);
#228=AXIS2_PLACEMENT_3D('',#435,#283,#284);
#229=DIRECTION('axis',(0.,0.,1.));
#230=DIRECTION('refdir',(1.,0.,0.));
#231=DIRECTION('center_axis',(0.,0.,1.));
#232=DIRECTION('ref_axis',(1.,0.,0.));
#233=DIRECTION('center_axis',(0.,0.,1.));
#234=DIRECTION('ref_axis',(1.,0.,0.));
#235=DIRECTION('center_axis',(0.,0.,-1.));
#236=DIRECTION('ref_axis',(-1.,0.,0.));
#237=DIRECTION('center_axis',(0.,0.,1.));
#238=DIRECTION('ref_axis',(1.,0.,0.));
#239=DIRECTION('',(0.,0.,-1.));
#240=DIRECTION('center_axis',(-1.41063631364138E-14,1.,-3.9706799939535E-14));
#241=DIRECTION('ref_axis',(-6.79195262123625E-15,-3.91190348088511E-14,
-1.));
#242=DIRECTION('center_axis',(1.39659253553729E-14,-1.,3.91410828067628E-14));
#243=DIRECTION('ref_axis',(-1.,-1.39659253553726E-14,6.98296267768612E-15));
#244=DIRECTION('center_axis',(1.,1.39659253553726E-14,-7.18379604169274E-15));
#245=DIRECTION('ref_axis',(7.18379604169219E-15,3.91435250226296E-14,1.));
#246=DIRECTION('center_axis',(1.39659253553725E-14,-1.,-1.04744440165295E-14));
#247=DIRECTION('ref_axis',(1.,1.39659253553726E-14,-6.98296267768612E-15));
#248=DIRECTION('center_axis',(1.39659253553729E-14,-1.,3.91410828067628E-14));
#249=DIRECTION('ref_axis',(6.98296267768557E-15,3.91410828067629E-14,1.));
#250=DIRECTION('',(-1.39659253553725E-14,1.,1.04744440165295E-14));
#251=DIRECTION('center_axis',(-1.39659253553725E-14,1.,1.04744440165295E-14));
#252=DIRECTION('ref_axis',(-1.,-1.39659253553726E-14,6.98296267768612E-15));
#253=DIRECTION('center_axis',(-1.39659253553725E-14,1.,1.04744440165295E-14));
#254=DIRECTION('ref_axis',(-1.,-1.39659253553726E-14,6.98296267768612E-15));
#255=DIRECTION('center_axis',(1.39659253553729E-14,-1.,3.91410828067628E-14));
#256=DIRECTION('ref_axis',(-1.,-1.39659253553726E-14,6.98296267768612E-15));
#257=DIRECTION('center_axis',(0.,0.,1.));
#258=DIRECTION('ref_axis',(1.,0.,0.));
#259=DIRECTION('center_axis',(0.,0.,1.));
#260=DIRECTION('ref_axis',(1.,0.,0.));
#261=DIRECTION('center_axis',(0.,0.,1.));
#262=DIRECTION('ref_axis',(1.,0.,0.));
#263=DIRECTION('center_axis',(0.,0.,-1.));
#264=DIRECTION('ref_axis',(-1.,0.,0.));
#265=DIRECTION('center_axis',(0.,0.,1.));
#266=DIRECTION('ref_axis',(1.,0.,0.));
#267=DIRECTION('',(0.,0.,1.));
#268=DIRECTION('center_axis',(0.,0.,1.));
#269=DIRECTION('ref_axis',(1.,0.,0.));
#270=DIRECTION('center_axis',(0.,0.,1.));
#271=DIRECTION('ref_axis',(1.,0.,0.));
#272=DIRECTION('center_axis',(-1.41063631364138E-14,1.,-3.9706799939535E-14));
#273=DIRECTION('ref_axis',(-6.79195262123625E-15,-3.91190348088511E-14,
-1.));
#274=DIRECTION('center_axis',(1.,1.39659253553726E-14,-7.18379604169274E-15));
#275=DIRECTION('ref_axis',(7.18379604169219E-15,3.91435250226296E-14,1.));
#276=DIRECTION('center_axis',(0.,0.,-1.));
#277=DIRECTION('ref_axis',(-1.,0.,0.));
#278=DIRECTION('center_axis',(0.,0.,1.));
#279=DIRECTION('ref_axis',(1.,0.,0.));
#280=DIRECTION('',(0.,0.,1.));
#281=DIRECTION('center_axis',(0.,1.,0.));
#282=DIRECTION('ref_axis',(0.,0.,1.));
#283=DIRECTION('center_axis',(0.,0.,1.));
#284=DIRECTION('ref_axis',(1.,0.,0.));
#285=CARTESIAN_POINT('',(0.,0.,0.));
#286=CARTESIAN_POINT('Origin',(-2.12890653466783,1.35005941024378,-8.61413080504038));
#287=CARTESIAN_POINT('',(-0.22890653466783,1.35005941024378,-8.61413080504038));
#288=CARTESIAN_POINT('Origin',(-2.12890653466783,1.35005941024378,-8.61413080504038));
#289=CARTESIAN_POINT('Origin',(-2.12890653466783,1.35005941024378,17.3858691949596));
#290=CARTESIAN_POINT('',(-0.22890653466783,1.35005941024378,17.1858691949596));
#291=CARTESIAN_POINT('Origin',(-2.12890653466783,1.35005941024378,17.1858691949596));
#292=CARTESIAN_POINT('',(-0.22890653466783,1.35005941024378,17.3858691949596));
#293=CARTESIAN_POINT('',(-2.97637785365777,-0.35046767377736,10.3814166620892));
#294=CARTESIAN_POINT('',(-2.13209892415605,-0.549937907819944,11.177495462301));
#295=CARTESIAN_POINT('Ctrl Pts',(-2.97637785365777,-0.35046767377736,10.3814166620892));
#296=CARTESIAN_POINT('Ctrl Pts',(-2.97637785365777,-0.35046767377736,10.4727257137107));
#297=CARTESIAN_POINT('Ctrl Pts',(-2.95971778175888,-0.359076196125026,10.569903214019));
#298=CARTESIAN_POINT('Ctrl Pts',(-2.89198199794954,-0.390373819416142,10.7493524632165));
#299=CARTESIAN_POINT('Ctrl Pts',(-2.84083633777526,-0.412632257350848,10.8316726522675));
#300=CARTESIAN_POINT('Ctrl Pts',(-2.72593107644004,-0.454691598512281,10.9613778571601));
#301=CARTESIAN_POINT('Ctrl Pts',(-2.64659529107125,-0.479654120247482,11.0244899823242));
#302=CARTESIAN_POINT('Ctrl Pts',(-2.50977424615985,-0.512482167243485,11.1006855454989));
#303=CARTESIAN_POINT('Ctrl Pts',(-2.43689545768827,-0.526375786097191,11.1301218005235));
#304=CARTESIAN_POINT('Ctrl Pts',(-2.28485884625531,-0.545077814943229,11.1685079619907));
#305=CARTESIAN_POINT('Ctrl Pts',(-2.20569890755945,-0.549791340752833,11.1774956489471));
#306=CARTESIAN_POINT('Ctrl Pts',(-2.13249474194423,-0.54993721183473,11.1774956489471));
#307=CARTESIAN_POINT('Ctrl Pts',(-2.13229685561825,-0.549937575254044,11.1774955867601));
#308=CARTESIAN_POINT('Ctrl Pts',(-2.13209892415604,-0.549937907819944,11.177495462301));
#309=CARTESIAN_POINT('Ctrl Pts',(-2.13209892415604,-0.549937907819944,11.177495462301));
#310=CARTESIAN_POINT('Ctrl Pts',(-2.05925715061735,-0.550060297104359,11.1774496594595));
#311=CARTESIAN_POINT('Ctrl Pts',(-1.98030206086294,-0.545659763386639,11.1684559503549));
#312=CARTESIAN_POINT('Ctrl Pts',(-1.82839822607237,-0.527588314766309,11.1301218005235));
#313=CARTESIAN_POINT('Ctrl Pts',(-1.75546464603424,-0.513985250524759,11.1006855454989));
#314=CARTESIAN_POINT('Ctrl Pts',(-1.61851385785366,-0.481702737968641,11.0244899823242));
#315=CARTESIAN_POINT('Ctrl Pts',(-1.53907921922987,-0.45705659185669,10.9613778571601));
#316=CARTESIAN_POINT('Ctrl Pts',(-1.42400725105161,-0.415455517338951,10.8316726522675));
#317=CARTESIAN_POINT('Ctrl Pts',(-1.37277329035588,-0.393401087276407,10.7493524632165));
#318=CARTESIAN_POINT('Ctrl Pts',(-1.30491331385303,-0.362373660361292,10.569903214019));
#319=CARTESIAN_POINT('Ctrl Pts',(-1.28821906666149,-0.353831601862653,10.4727257137107));
#320=CARTESIAN_POINT('Ctrl Pts',(-1.28821906666149,-0.353831601862653,10.2901076104678));
#321=CARTESIAN_POINT('Ctrl Pts',(-1.30491331385303,-0.362373660361292,10.1929301101594));
#322=CARTESIAN_POINT('Ctrl Pts',(-1.37277329035588,-0.393401087276406,10.0134808609619));
#323=CARTESIAN_POINT('Ctrl Pts',(-1.42400725105161,-0.415455517338951,9.93116067191096));
#324=CARTESIAN_POINT('Ctrl Pts',(-1.53907921922987,-0.45705659185669,9.8014554670183));
#325=CARTESIAN_POINT('Ctrl Pts',(-1.61851385785366,-0.481702737968641,9.73834334185421));
#326=CARTESIAN_POINT('Ctrl Pts',(-1.75546464603424,-0.513985250524758,9.66214777867955));
#327=CARTESIAN_POINT('Ctrl Pts',(-1.82839822607237,-0.527588314766309,9.6327115236549));
#328=CARTESIAN_POINT('Ctrl Pts',(-1.98050816343632,-0.545684282662735,9.59432536218774));
#329=CARTESIAN_POINT('Ctrl Pts',(-2.05968625833733,-0.550082294456543,9.58533767523132));
#330=CARTESIAN_POINT('Ctrl Pts',(-2.20569890755945,-0.549791340752833,9.58533767523132));
#331=CARTESIAN_POINT('Ctrl Pts',(-2.28485884625531,-0.545077814943229,9.59432536218774));
#332=CARTESIAN_POINT('Ctrl Pts',(-2.43689545768827,-0.526375786097191,9.6327115236549));
#333=CARTESIAN_POINT('Ctrl Pts',(-2.50977424615985,-0.512482167243485,9.66214777867955));
#334=CARTESIAN_POINT('Ctrl Pts',(-2.64659529107125,-0.479654120247482,9.73834334185421));
#335=CARTESIAN_POINT('Ctrl Pts',(-2.72593107644004,-0.454691598512281,9.8014554670183));
#336=CARTESIAN_POINT('Ctrl Pts',(-2.84083633777526,-0.412632257350848,9.93116067191096));
#337=CARTESIAN_POINT('Ctrl Pts',(-2.89198199794954,-0.390373819416142,10.0134808609619));
#338=CARTESIAN_POINT('Ctrl Pts',(-2.95971778175889,-0.359076196125026,10.1929301101594));
#339=CARTESIAN_POINT('Ctrl Pts',(-2.97637785365777,-0.350467673777359,10.2901076104678));
#340=CARTESIAN_POINT('Ctrl Pts',(-2.97637785365777,-0.35046767377736,10.3814166620892));
#341=CARTESIAN_POINT('Origin',(-2.13209892415606,-0.252014186284816,10.3814166620892));
#342=CARTESIAN_POINT('',(-2.13209892415605,-0.252014186284783,11.2314166620892));
#343=CARTESIAN_POINT('Origin',(-2.13209892415606,-0.252014186284816,10.3814166620892));
#344=CARTESIAN_POINT('Origin',(-2.13209892415606,-0.252014186284816,10.3814166620892));
#345=CARTESIAN_POINT('Origin',(-2.13209892415607,0.147985813715184,10.3814166620892));
#346=CARTESIAN_POINT('',(-2.88209892415606,-0.252014186284864,10.3814166620892));
#347=CARTESIAN_POINT('Origin',(-2.13209892415606,-0.252014186284816,10.3814166620892));
#348=CARTESIAN_POINT('',(-2.88209892415607,0.147985813715173,10.3814166620892));
#349=CARTESIAN_POINT('',(-2.88209892415607,0.147985813715173,10.3814166620892));
#350=CARTESIAN_POINT('Origin',(-2.13209892415607,0.147985813715184,10.3814166620892));
#351=CARTESIAN_POINT('Origin',(-2.13209892415607,0.147985813715184,10.3814166620892));
#352=CARTESIAN_POINT('Origin',(-2.13209892415606,-0.252014186284816,10.3814166620892));
#353=CARTESIAN_POINT('Origin',(-2.12890653466783,1.35005941024378,17.1858691949596));
#354=CARTESIAN_POINT('Origin',(-2.12890653466783,1.35005941024378,32.3858691949596));
#355=CARTESIAN_POINT('',(-0.67890653466783,1.35005941024378,32.3858691949596));
#356=CARTESIAN_POINT('Origin',(-2.12890653466783,1.35005941024378,32.3858691949596));
#357=CARTESIAN_POINT('Origin',(-2.12890653466783,1.35005941024378,32.3858691949596));
#358=CARTESIAN_POINT('',(-0.67890653466783,1.35005941024378,17.3858691949596));
#359=CARTESIAN_POINT('Origin',(-2.12890653466783,1.35005941024378,17.3858691949596));
#360=CARTESIAN_POINT('',(-0.67890653466783,1.35005941024378,32.3858691949596));
#361=CARTESIAN_POINT('Origin',(-2.12890653466783,1.35005941024378,17.3858691949596));
#362=CARTESIAN_POINT('',(-0.12890653466783,1.35005941024378,17.3858691949596));
#363=CARTESIAN_POINT('Origin',(-2.12890653466783,1.35005941024378,17.3858691949596));
#364=CARTESIAN_POINT('Origin',(-2.13209892415606,-0.252014186284816,10.3814166620892));
#365=CARTESIAN_POINT('',(-1.95482484925322,-0.642350077848164,11.1153865476036));
#366=CARTESIAN_POINT('',(-2.1320989243777,-0.643564473607262,11.1358624006932));
#367=CARTESIAN_POINT('Ctrl Pts',(-1.95482484939362,-0.642350080787932,11.115386546948));
#368=CARTESIAN_POINT('Ctrl Pts',(-2.01301061123555,-0.642667576214928,11.1292711727938));
#369=CARTESIAN_POINT('Ctrl Pts',(-2.07212870038028,-0.643075415118344,11.1358691949596));
#370=CARTESIAN_POINT('Ctrl Pts',(-2.12890653466783,-0.643538367268295,11.1358691949596));
#371=CARTESIAN_POINT('Ctrl Pts',(-2.1299698518262,-0.643547037288395,11.1358691949596));
#372=CARTESIAN_POINT('Ctrl Pts',(-2.13103398899054,-0.643555739422892,11.1358669336539));
#373=CARTESIAN_POINT('Ctrl Pts',(-2.13209892459936,-0.643564473607262,11.1358624006932));
#374=CARTESIAN_POINT('',(-2.13209892415605,-1.10201418628482,10.3814166620892));
#375=CARTESIAN_POINT('Origin',(-2.13209892415606,-0.252014186284816,10.3814166620892));
#376=CARTESIAN_POINT('',(-2.27145712845981,-0.644853953808005,11.1221974706086));
#377=CARTESIAN_POINT('Ctrl Pts',(-2.13209892459936,-0.643564473607262,11.1358624006932));
#378=CARTESIAN_POINT('Ctrl Pts',(-2.17765275933253,-0.643938088300991,11.1356684981322));
#379=CARTESIAN_POINT('Ctrl Pts',(-2.22466731984121,-0.644371053689942,11.1312558139663));
#380=CARTESIAN_POINT('Ctrl Pts',(-2.27145712825586,-0.644853957615975,11.1221974697581));
#381=CARTESIAN_POINT('Ctrl Pts',(-2.27145712862881,-0.644853953329025,11.1221974719613));
#382=CARTESIAN_POINT('Ctrl Pts',(-2.29938930199338,-0.642858003040432,11.1180012389606));
#383=CARTESIAN_POINT('Ctrl Pts',(-2.32737425059132,-0.64026263014889,11.1124765049115));
#384=CARTESIAN_POINT('Ctrl Pts',(-2.4290753739397,-0.628693143680516,11.0873321352101));
#385=CARTESIAN_POINT('Ctrl Pts',(-2.5002779337002,-0.616156463600968,11.0591920198374));
#386=CARTESIAN_POINT('Ctrl Pts',(-2.63323946317753,-0.586705832208523,10.9866332385017));
#387=CARTESIAN_POINT('Ctrl Pts',(-2.71029551912002,-0.564441068233389,10.9268757192826));
#388=CARTESIAN_POINT('Ctrl Pts',(-2.82140513841392,-0.527169781146018,10.8045600648841));
#389=CARTESIAN_POINT('Ctrl Pts',(-2.87092035920934,-0.507543893340464,10.7274250830853));
#390=CARTESIAN_POINT('Ctrl Pts',(-2.93674193539133,-0.479879472907357,10.5589030196072));
#391=CARTESIAN_POINT('Ctrl Pts',(-2.95307663179416,-0.472231359914146,10.4674631479371));
#392=CARTESIAN_POINT('Ctrl Pts',(-2.95307663179416,-0.472231359914146,10.2953701762414));
#393=CARTESIAN_POINT('Ctrl Pts',(-2.93674193539133,-0.479879472907357,10.2039303045713));
#394=CARTESIAN_POINT('Ctrl Pts',(-2.87092035920934,-0.507543893340464,10.0354082410931));
#395=CARTESIAN_POINT('Ctrl Pts',(-2.82140513841392,-0.527169781146018,9.95827325929433));
#396=CARTESIAN_POINT('Ctrl Pts',(-2.71029551912002,-0.564441068233389,9.83595760489582));
#397=CARTESIAN_POINT('Ctrl Pts',(-2.63323946317753,-0.586705832208523,9.7762000856767));
#398=CARTESIAN_POINT('Ctrl Pts',(-2.5002779337002,-0.616156463600968,9.70364130434099));
#399=CARTESIAN_POINT('Ctrl Pts',(-2.4290753739397,-0.628693143680516,9.6755011889683));
#400=CARTESIAN_POINT('Ctrl Pts',(-2.28086027855379,-0.645554044366952,9.63885680362609));
#401=CARTESIAN_POINT('Ctrl Pts',(-2.20384815053073,-0.64979522721877,9.6303127353542));
#402=CARTESIAN_POINT('Ctrl Pts',(-2.06193554676399,-0.650078010922024,9.6303127353542));
#403=CARTESIAN_POINT('Ctrl Pts',(-1.9849071279105,-0.646143778652049,9.63885680362609));
#404=CARTESIAN_POINT('Ctrl Pts',(-1.83662601370477,-0.629873694383068,9.6755011889683));
#405=CARTESIAN_POINT('Ctrl Pts',(-1.76537405688252,-0.61762087785528,9.70364130434099));
#406=CARTESIAN_POINT('Ctrl Pts',(-1.63229621352109,-0.588700372731157,9.7762000856767));
#407=CARTESIAN_POINT('Ctrl Pts',(-1.55515203760981,-0.566742877535884,9.83595760489582));
#408=CARTESIAN_POINT('Ctrl Pts',(-1.44389476319124,-0.52991469227327,9.95827325929433));
#409=CARTESIAN_POINT('Ctrl Pts',(-1.39430172044446,-0.510486293633891,10.0354082410931));
#410=CARTESIAN_POINT('Ctrl Pts',(-1.32837041579294,-0.483084412020928,10.2039303045713));
#411=CARTESIAN_POINT('Ctrl Pts',(-1.31200536903876,-0.475501458528846,10.2953701762414));
#412=CARTESIAN_POINT('Ctrl Pts',(-1.31200536903876,-0.475501458528846,10.3814166620892));
#413=CARTESIAN_POINT('Ctrl Pts',(-1.31200536903877,-0.475501458528847,10.4674631479371));
#414=CARTESIAN_POINT('Ctrl Pts',(-1.32837041579294,-0.483084412020928,10.5589030196072));
#415=CARTESIAN_POINT('Ctrl Pts',(-1.39430172044446,-0.510486293633891,10.7274250830853));
#416=CARTESIAN_POINT('Ctrl Pts',(-1.44389476319124,-0.52991469227327,10.8045600648841));
#417=CARTESIAN_POINT('Ctrl Pts',(-1.55515203760981,-0.566742877535884,10.9268757192826));
#418=CARTESIAN_POINT('Ctrl Pts',(-1.63229621352109,-0.588700372731157,10.9866332385017));
#419=CARTESIAN_POINT('Ctrl Pts',(-1.76537405688252,-0.61762087785528,11.0591920198374));
#420=CARTESIAN_POINT('Ctrl Pts',(-1.83662601370477,-0.629873694383068,11.0873321352101));
#421=CARTESIAN_POINT('Ctrl Pts',(-1.92536649072454,-0.63961070672557,11.1092623739515));
#422=CARTESIAN_POINT('Ctrl Pts',(-1.94007393848073,-0.641061254368454,11.112509209719));
#423=CARTESIAN_POINT('Ctrl Pts',(-1.95482484908457,-0.64235007747316,11.1153865486362));
#424=CARTESIAN_POINT('Origin',(-2.12890653466783,1.35005941024378,17.3858691949596));
#425=CARTESIAN_POINT('',(-0.12890653466783,1.35005941024378,-8.81413080504038));
#426=CARTESIAN_POINT('Origin',(-2.12890653466783,1.35005941024378,-8.81413080504038));
#427=CARTESIAN_POINT('',(-0.12890653466783,1.35005941024378,17.3858691949596));
#428=CARTESIAN_POINT('Ctrl Pts',(-2.27145712829828,-0.644853953352644,11.1221974697499));
#429=CARTESIAN_POINT('Ctrl Pts',(-2.2237058583821,-0.648266117508428,11.1314419495644));
#430=CARTESIAN_POINT('Ctrl Pts',(-2.17559375580032,-0.649940589756217,11.1358691949596));
#431=CARTESIAN_POINT('Ctrl Pts',(-2.07192382066114,-0.649940589756217,11.1358691949596));
#432=CARTESIAN_POINT('Ctrl Pts',(-2.01281714024981,-0.647417005652366,11.1292250056174));
#433=CARTESIAN_POINT('Ctrl Pts',(-1.95482484941059,-0.642350077501646,11.115386546952));
#434=CARTESIAN_POINT('Origin',(-2.12890653466783,-0.849940589756218,10.3858691949596));
#435=CARTESIAN_POINT('Origin',(-2.12890653466783,1.35005941024378,-8.81413080504038));
#436=UNCERTAINTY_MEASURE_WITH_UNIT(LENGTH_MEASURE(0.01),#440,
'DISTANCE_ACCURACY_VALUE',
'Maximum model space distance between geometric entities at asserted c
onnectivities');
#437=UNCERTAINTY_MEASURE_WITH_UNIT(LENGTH_MEASURE(0.01),#440,
'DISTANCE_ACCURACY_VALUE',
'Maximum model space distance between geometric entities at asserted c
onnectivities');
#438=(
GEOMETRIC_REPRESENTATION_CONTEXT(3)
GLOBAL_UNCERTAINTY_ASSIGNED_CONTEXT((#436))
GLOBAL_UNIT_ASSIGNED_CONTEXT((#440,#442,#443))
REPRESENTATION_CONTEXT('','3D')
);
#439=(
GEOMETRIC_REPRESENTATION_CONTEXT(3)
GLOBAL_UNCERTAINTY_ASSIGNED_CONTEXT((#437))
GLOBAL_UNIT_ASSIGNED_CONTEXT((#440,#442,#443))
REPRESENTATION_CONTEXT('','3D')
);
#440=(
LENGTH_UNIT()
NAMED_UNIT(*)
SI_UNIT(.MILLI.,.METRE.)
);
#441=(
LENGTH_UNIT()
NAMED_UNIT(*)
SI_UNIT(.CENTI.,.METRE.)
);
#442=(
NAMED_UNIT(*)
PLANE_ANGLE_UNIT()
SI_UNIT($,.RADIAN.)
);
#443=(
NAMED_UNIT(*)
SI_UNIT($,.STERADIAN.)
SOLID_ANGLE_UNIT()
);
#444=SHAPE_DEFINITION_REPRESENTATION(#445,#446);
#445=PRODUCT_DEFINITION_SHAPE('',$,#448);
#446=SHAPE_REPRESENTATION('',(#203),#438);
#447=PRODUCT_DEFINITION_CONTEXT('part definition',#452,'design');
#448=PRODUCT_DEFINITION('Bauteil20','Bauteil20',#449,#447);
#449=PRODUCT_DEFINITION_FORMATION('',$,#454);
#450=PRODUCT_RELATED_PRODUCT_CATEGORY('Bauteil20','Bauteil20',(#454));
#451=APPLICATION_PROTOCOL_DEFINITION('international standard',
'automotive_design',2009,#452);
#452=APPLICATION_CONTEXT(
'Core Data for Automotive Mechanical Design Process');
#453=PRODUCT_CONTEXT('part definition',#452,'mechanical');
#454=PRODUCT('Bauteil20','Bauteil20',$,(#453));
#455=PRESENTATION_STYLE_ASSIGNMENT((#456));
#456=SURFACE_STYLE_USAGE(.BOTH.,#459);
#457=SURFACE_STYLE_RENDERING_WITH_PROPERTIES($,#463,(#458));
#458=SURFACE_STYLE_TRANSPARENT(0.);
#459=SURFACE_SIDE_STYLE('',(#460,#457));
#460=SURFACE_STYLE_FILL_AREA(#461);
#461=FILL_AREA_STYLE('',(#462));
#462=FILL_AREA_STYLE_COLOUR('',#463);
#463=COLOUR_RGB('',0.749019607843137,0.749019607843137,0.749019607843137);
ENDSEC;
END-ISO-10303-21;
