ISO-10303-21;
HEADER;
/* Generated by software containing ST-Developer
 * from STEP Tools, Inc. (www.steptools.com) 
 */

FILE_DESCRIPTION(
/* description */ (''),
/* implementation_level */ '2;1');

FILE_NAME(
/* name */ 
'G:\\Entwicklung\\Zeichnungen\\3D\\parts - step iges\\Q5_B_KABEL_I1CF-
Q5501N-O3U2.stp',
/* time_stamp */ '2021-08-12T14:08:14+02:00',
/* author */ ('S. Sandt'),
/* organization */ ('di-soric GmbH & Co. KG'),
/* preprocessor_version */ 'ST-DEVELOPER v18.1',
/* originating_system */ 'Autodesk Inventor 2021',
/* authorisation */ '');

FILE_SCHEMA (('AUTOMOTIVE_DESIGN { 1 0 10303 214 3 1 1 }'));
ENDSEC;

DATA;
#10=MECHANICAL_DESIGN_GEOMETRIC_PRESENTATION_REPRESENTATION('',(#13),#499);
#11=SHAPE_REPRESENTATION_RELATIONSHIP('SRR','None',#506,#12);
#12=ADVANCED_BREP_SHAPE_REPRESENTATION('',(#14),#498);
#13=STYLED_ITEM('',(#515),#14);
#14=MANIFOLD_SOLID_BREP('Volumenk\X\F6rper8',#277);
#15=FACE_BOUND('',#57,.T.);
#16=FACE_BOUND('',#58,.T.);
#17=FACE_BOUND('',#61,.T.);
#18=FACE_BOUND('',#62,.T.);
#19=FACE_BOUND('',#64,.T.);
#20=FACE_BOUND('',#66,.T.);
#21=PLANE('',#306);
#22=PLANE('',#307);
#23=PLANE('',#313);
#24=PLANE('',#322);
#25=PLANE('',#323);
#26=PLANE('',#324);
#27=PLANE('',#325);
#28=PLANE('',#326);
#29=PLANE('',#327);
#30=PLANE('',#328);
#31=FACE_OUTER_BOUND('',#47,.T.);
#32=FACE_OUTER_BOUND('',#48,.T.);
#33=FACE_OUTER_BOUND('',#49,.T.);
#34=FACE_OUTER_BOUND('',#50,.T.);
#35=FACE_OUTER_BOUND('',#51,.T.);
#36=FACE_OUTER_BOUND('',#52,.T.);
#37=FACE_OUTER_BOUND('',#53,.T.);
#38=FACE_OUTER_BOUND('',#54,.T.);
#39=FACE_OUTER_BOUND('',#55,.T.);
#40=FACE_OUTER_BOUND('',#56,.T.);
#41=FACE_OUTER_BOUND('',#59,.T.);
#42=FACE_OUTER_BOUND('',#60,.T.);
#43=FACE_OUTER_BOUND('',#63,.T.);
#44=FACE_OUTER_BOUND('',#65,.T.);
#45=FACE_OUTER_BOUND('',#67,.T.);
#46=FACE_OUTER_BOUND('',#68,.T.);
#47=EDGE_LOOP('',(#183,#184,#185,#186,#187,#188,#189,#190,#191,#192));
#48=EDGE_LOOP('',(#193,#194,#195,#196));
#49=EDGE_LOOP('',(#197));
#50=EDGE_LOOP('',(#198,#199,#200,#201));
#51=EDGE_LOOP('',(#202,#203,#204,#205,#206));
#52=EDGE_LOOP('',(#207,#208,#209));
#53=EDGE_LOOP('',(#210,#211,#212));
#54=EDGE_LOOP('',(#213,#214,#215,#216));
#55=EDGE_LOOP('',(#217,#218,#219,#220));
#56=EDGE_LOOP('',(#221,#222,#223,#224));
#57=EDGE_LOOP('',(#225));
#58=EDGE_LOOP('',(#226));
#59=EDGE_LOOP('',(#227,#228,#229,#230));
#60=EDGE_LOOP('',(#231,#232,#233,#234));
#61=EDGE_LOOP('',(#235));
#62=EDGE_LOOP('',(#236));
#63=EDGE_LOOP('',(#237,#238,#239,#240));
#64=EDGE_LOOP('',(#241,#242,#243,#244));
#65=EDGE_LOOP('',(#245,#246,#247,#248));
#66=EDGE_LOOP('',(#249));
#67=EDGE_LOOP('',(#250,#251,#252,#253));
#68=EDGE_LOOP('',(#254));
#69=B_SPLINE_CURVE_WITH_KNOTS('',3,(#422,#423,#424,#425),.UNSPECIFIED.,
 .F.,.F.,(4,4),(0.982970075024642,1.00440509347795),.UNSPECIFIED.);
#70=B_SPLINE_CURVE_WITH_KNOTS('',3,(#433,#434,#435,#436),.UNSPECIFIED.,
 .F.,.F.,(4,4),(1.05094435992294,1.07337784470716),.UNSPECIFIED.);
#71=ELLIPSE('',#299,2.00002778881738,2.);
#72=ELLIPSE('',#301,2.00002778881738,2.);
#73=ELLIPSE('',#302,2.00002778881738,2.);
#74=ELLIPSE('',#308,2.00002778881738,2.);
#75=ELLIPSE('',#311,2.00002778881738,2.);
#76=LINE('',#418,#94);
#77=LINE('',#429,#95);
#78=LINE('',#442,#96);
#79=LINE('',#449,#97);
#80=LINE('',#461,#98);
#81=LINE('',#467,#99);
#82=LINE('',#472,#100);
#83=LINE('',#474,#101);
#84=LINE('',#476,#102);
#85=LINE('',#477,#103);
#86=LINE('',#480,#104);
#87=LINE('',#482,#105);
#88=LINE('',#483,#106);
#89=LINE('',#486,#107);
#90=LINE('',#488,#108);
#91=LINE('',#489,#109);
#92=LINE('',#491,#110);
#93=LINE('',#492,#111);
#94=VECTOR('',#335,2.);
#95=VECTOR('',#340,2.);
#96=VECTOR('',#349,1.45);
#97=VECTOR('',#358,10.);
#98=VECTOR('',#377,0.799999999999999);
#99=VECTOR('',#384,0.799999999999999);
#100=VECTOR('',#389,1000.);
#101=VECTOR('',#390,1000.);
#102=VECTOR('',#391,1000.);
#103=VECTOR('',#392,1000.);
#104=VECTOR('',#395,1000.);
#105=VECTOR('',#396,1000.);
#106=VECTOR('',#397,1000.);
#107=VECTOR('',#400,1000.);
#108=VECTOR('',#401,1000.);
#109=VECTOR('',#402,1000.);
#110=VECTOR('',#405,1000.);
#111=VECTOR('',#406,1000.);
#112=CIRCLE('',#298,2.);
#113=CIRCLE('',#300,2.);
#114=CIRCLE('',#304,1.45);
#115=CIRCLE('',#305,1.45);
#116=CIRCLE('',#309,2.);
#117=CIRCLE('',#312,2.);
#118=CIRCLE('',#315,2.);
#119=CIRCLE('',#317,0.799999999999999);
#120=CIRCLE('',#318,0.799999999999999);
#121=CIRCLE('',#320,0.799999999999999);
#122=CIRCLE('',#321,0.8);
#123=VERTEX_POINT('',#415);
#124=VERTEX_POINT('',#417);
#125=VERTEX_POINT('',#419);
#126=VERTEX_POINT('',#421);
#127=VERTEX_POINT('',#426);
#128=VERTEX_POINT('',#428);
#129=VERTEX_POINT('',#430);
#130=VERTEX_POINT('',#432);
#131=VERTEX_POINT('',#439);
#132=VERTEX_POINT('',#441);
#133=VERTEX_POINT('',#446);
#134=VERTEX_POINT('',#448);
#135=VERTEX_POINT('',#458);
#136=VERTEX_POINT('',#460);
#137=VERTEX_POINT('',#464);
#138=VERTEX_POINT('',#466);
#139=VERTEX_POINT('',#470);
#140=VERTEX_POINT('',#471);
#141=VERTEX_POINT('',#473);
#142=VERTEX_POINT('',#475);
#143=VERTEX_POINT('',#479);
#144=VERTEX_POINT('',#481);
#145=VERTEX_POINT('',#485);
#146=VERTEX_POINT('',#487);
#147=EDGE_CURVE('',#123,#123,#112,.T.);
#148=EDGE_CURVE('',#123,#124,#76,.T.);
#149=EDGE_CURVE('',#124,#125,#71,.T.);
#150=EDGE_CURVE('',#125,#126,#69,.T.);
#151=EDGE_CURVE('',#127,#126,#113,.T.);
#152=EDGE_CURVE('',#128,#127,#77,.T.);
#153=EDGE_CURVE('',#128,#129,#72,.T.);
#154=EDGE_CURVE('',#129,#130,#70,.T.);
#155=EDGE_CURVE('',#130,#124,#73,.T.);
#156=EDGE_CURVE('',#131,#131,#114,.T.);
#157=EDGE_CURVE('',#131,#132,#78,.T.);
#158=EDGE_CURVE('',#132,#132,#115,.T.);
#159=EDGE_CURVE('',#133,#128,#74,.T.);
#160=EDGE_CURVE('',#134,#133,#79,.T.);
#161=EDGE_CURVE('',#129,#134,#116,.T.);
#162=EDGE_CURVE('',#126,#134,#75,.T.);
#163=EDGE_CURVE('',#130,#125,#117,.T.);
#164=EDGE_CURVE('',#133,#127,#118,.T.);
#165=EDGE_CURVE('',#135,#135,#119,.T.);
#166=EDGE_CURVE('',#135,#136,#80,.T.);
#167=EDGE_CURVE('',#136,#136,#120,.T.);
#168=EDGE_CURVE('',#137,#137,#121,.T.);
#169=EDGE_CURVE('',#137,#138,#81,.T.);
#170=EDGE_CURVE('',#138,#138,#122,.T.);
#171=EDGE_CURVE('',#139,#140,#82,.T.);
#172=EDGE_CURVE('',#141,#140,#83,.T.);
#173=EDGE_CURVE('',#142,#141,#84,.T.);
#174=EDGE_CURVE('',#142,#139,#85,.T.);
#175=EDGE_CURVE('',#140,#143,#86,.T.);
#176=EDGE_CURVE('',#144,#143,#87,.T.);
#177=EDGE_CURVE('',#141,#144,#88,.T.);
#178=EDGE_CURVE('',#143,#145,#89,.T.);
#179=EDGE_CURVE('',#146,#145,#90,.T.);
#180=EDGE_CURVE('',#144,#146,#91,.T.);
#181=EDGE_CURVE('',#145,#139,#92,.T.);
#182=EDGE_CURVE('',#146,#142,#93,.T.);
#183=ORIENTED_EDGE('',*,*,#147,.T.);
#184=ORIENTED_EDGE('',*,*,#148,.T.);
#185=ORIENTED_EDGE('',*,*,#149,.T.);
#186=ORIENTED_EDGE('',*,*,#150,.T.);
#187=ORIENTED_EDGE('',*,*,#151,.F.);
#188=ORIENTED_EDGE('',*,*,#152,.F.);
#189=ORIENTED_EDGE('',*,*,#153,.T.);
#190=ORIENTED_EDGE('',*,*,#154,.T.);
#191=ORIENTED_EDGE('',*,*,#155,.T.);
#192=ORIENTED_EDGE('',*,*,#148,.F.);
#193=ORIENTED_EDGE('',*,*,#156,.F.);
#194=ORIENTED_EDGE('',*,*,#157,.T.);
#195=ORIENTED_EDGE('',*,*,#158,.F.);
#196=ORIENTED_EDGE('',*,*,#157,.F.);
#197=ORIENTED_EDGE('',*,*,#158,.T.);
#198=ORIENTED_EDGE('',*,*,#159,.F.);
#199=ORIENTED_EDGE('',*,*,#160,.F.);
#200=ORIENTED_EDGE('',*,*,#161,.F.);
#201=ORIENTED_EDGE('',*,*,#153,.F.);
#202=ORIENTED_EDGE('',*,*,#154,.F.);
#203=ORIENTED_EDGE('',*,*,#161,.T.);
#204=ORIENTED_EDGE('',*,*,#162,.F.);
#205=ORIENTED_EDGE('',*,*,#150,.F.);
#206=ORIENTED_EDGE('',*,*,#163,.F.);
#207=ORIENTED_EDGE('',*,*,#155,.F.);
#208=ORIENTED_EDGE('',*,*,#163,.T.);
#209=ORIENTED_EDGE('',*,*,#149,.F.);
#210=ORIENTED_EDGE('',*,*,#152,.T.);
#211=ORIENTED_EDGE('',*,*,#164,.F.);
#212=ORIENTED_EDGE('',*,*,#159,.T.);
#213=ORIENTED_EDGE('',*,*,#165,.F.);
#214=ORIENTED_EDGE('',*,*,#166,.T.);
#215=ORIENTED_EDGE('',*,*,#167,.T.);
#216=ORIENTED_EDGE('',*,*,#166,.F.);
#217=ORIENTED_EDGE('',*,*,#168,.F.);
#218=ORIENTED_EDGE('',*,*,#169,.T.);
#219=ORIENTED_EDGE('',*,*,#170,.T.);
#220=ORIENTED_EDGE('',*,*,#169,.F.);
#221=ORIENTED_EDGE('',*,*,#171,.T.);
#222=ORIENTED_EDGE('',*,*,#172,.F.);
#223=ORIENTED_EDGE('',*,*,#173,.F.);
#224=ORIENTED_EDGE('',*,*,#174,.T.);
#225=ORIENTED_EDGE('',*,*,#167,.F.);
#226=ORIENTED_EDGE('',*,*,#170,.F.);
#227=ORIENTED_EDGE('',*,*,#175,.T.);
#228=ORIENTED_EDGE('',*,*,#176,.F.);
#229=ORIENTED_EDGE('',*,*,#177,.F.);
#230=ORIENTED_EDGE('',*,*,#172,.T.);
#231=ORIENTED_EDGE('',*,*,#178,.T.);
#232=ORIENTED_EDGE('',*,*,#179,.F.);
#233=ORIENTED_EDGE('',*,*,#180,.F.);
#234=ORIENTED_EDGE('',*,*,#176,.T.);
#235=ORIENTED_EDGE('',*,*,#165,.T.);
#236=ORIENTED_EDGE('',*,*,#168,.T.);
#237=ORIENTED_EDGE('',*,*,#181,.T.);
#238=ORIENTED_EDGE('',*,*,#174,.F.);
#239=ORIENTED_EDGE('',*,*,#182,.F.);
#240=ORIENTED_EDGE('',*,*,#179,.T.);
#241=ORIENTED_EDGE('',*,*,#160,.T.);
#242=ORIENTED_EDGE('',*,*,#164,.T.);
#243=ORIENTED_EDGE('',*,*,#151,.T.);
#244=ORIENTED_EDGE('',*,*,#162,.T.);
#245=ORIENTED_EDGE('',*,*,#173,.T.);
#246=ORIENTED_EDGE('',*,*,#177,.T.);
#247=ORIENTED_EDGE('',*,*,#180,.T.);
#248=ORIENTED_EDGE('',*,*,#182,.T.);
#249=ORIENTED_EDGE('',*,*,#156,.T.);
#250=ORIENTED_EDGE('',*,*,#171,.F.);
#251=ORIENTED_EDGE('',*,*,#181,.F.);
#252=ORIENTED_EDGE('',*,*,#178,.F.);
#253=ORIENTED_EDGE('',*,*,#175,.F.);
#254=ORIENTED_EDGE('',*,*,#147,.F.);
#255=CYLINDRICAL_SURFACE('',#297,2.);
#256=CYLINDRICAL_SURFACE('',#303,1.45);
#257=CYLINDRICAL_SURFACE('',#310,2.);
#258=CYLINDRICAL_SURFACE('',#314,2.);
#259=CYLINDRICAL_SURFACE('',#316,0.799999999999999);
#260=CYLINDRICAL_SURFACE('',#319,0.799999999999999);
#261=ADVANCED_FACE('',(#31),#255,.F.);
#262=ADVANCED_FACE('',(#32),#256,.T.);
#263=ADVANCED_FACE('',(#33),#21,.T.);
#264=ADVANCED_FACE('',(#34),#22,.F.);
#265=ADVANCED_FACE('',(#35),#257,.T.);
#266=ADVANCED_FACE('',(#36),#23,.T.);
#267=ADVANCED_FACE('',(#37),#258,.F.);
#268=ADVANCED_FACE('',(#38),#259,.F.);
#269=ADVANCED_FACE('',(#39),#260,.F.);
#270=ADVANCED_FACE('',(#40,#15,#16),#24,.F.);
#271=ADVANCED_FACE('',(#41),#25,.F.);
#272=ADVANCED_FACE('',(#42,#17,#18),#26,.F.);
#273=ADVANCED_FACE('',(#43,#19),#27,.F.);
#274=ADVANCED_FACE('',(#44,#20),#28,.T.);
#275=ADVANCED_FACE('',(#45),#29,.F.);
#276=ADVANCED_FACE('',(#46),#30,.F.);
#277=CLOSED_SHELL('',(#261,#262,#263,#264,#265,#266,#267,#268,#269,#270,
#271,#272,#273,#274,#275,#276));
#278=DERIVED_UNIT_ELEMENT(#280,1.);
#279=DERIVED_UNIT_ELEMENT(#501,-3.);
#280=(
MASS_UNIT()
NAMED_UNIT(*)
SI_UNIT($,.GRAM.)
);
#281=DERIVED_UNIT((#278,#279));
#282=MEASURE_REPRESENTATION_ITEM('density measure',
POSITIVE_RATIO_MEASURE(1.),#281);
#283=PROPERTY_DEFINITION_REPRESENTATION(#288,#285);
#284=PROPERTY_DEFINITION_REPRESENTATION(#289,#286);
#285=REPRESENTATION('material name',(#287),#498);
#286=REPRESENTATION('density',(#282),#498);
#287=DESCRIPTIVE_REPRESENTATION_ITEM('Allgemein','Allgemein');
#288=PROPERTY_DEFINITION('material property','material name',#508);
#289=PROPERTY_DEFINITION('material property','density of part',#508);
#290=DATE_TIME_ROLE('creation_date');
#291=APPLIED_DATE_AND_TIME_ASSIGNMENT(#292,#290,(#508));
#292=DATE_AND_TIME(#293,#294);
#293=CALENDAR_DATE(2021,12,8);
#294=LOCAL_TIME(0,0,0.,#295);
#295=COORDINATED_UNIVERSAL_TIME_OFFSET(0,0,.BEHIND.);
#296=AXIS2_PLACEMENT_3D('placement',#413,#329,#330);
#297=AXIS2_PLACEMENT_3D('',#414,#331,#332);
#298=AXIS2_PLACEMENT_3D('',#416,#333,#334);
#299=AXIS2_PLACEMENT_3D('',#420,#336,#337);
#300=AXIS2_PLACEMENT_3D('',#427,#338,#339);
#301=AXIS2_PLACEMENT_3D('',#431,#341,#342);
#302=AXIS2_PLACEMENT_3D('',#437,#343,#344);
#303=AXIS2_PLACEMENT_3D('',#438,#345,#346);
#304=AXIS2_PLACEMENT_3D('',#440,#347,#348);
#305=AXIS2_PLACEMENT_3D('',#443,#350,#351);
#306=AXIS2_PLACEMENT_3D('',#444,#352,#353);
#307=AXIS2_PLACEMENT_3D('',#445,#354,#355);
#308=AXIS2_PLACEMENT_3D('',#447,#356,#357);
#309=AXIS2_PLACEMENT_3D('',#450,#359,#360);
#310=AXIS2_PLACEMENT_3D('',#451,#361,#362);
#311=AXIS2_PLACEMENT_3D('',#452,#363,#364);
#312=AXIS2_PLACEMENT_3D('',#453,#365,#366);
#313=AXIS2_PLACEMENT_3D('',#454,#367,#368);
#314=AXIS2_PLACEMENT_3D('',#455,#369,#370);
#315=AXIS2_PLACEMENT_3D('',#456,#371,#372);
#316=AXIS2_PLACEMENT_3D('',#457,#373,#374);
#317=AXIS2_PLACEMENT_3D('',#459,#375,#376);
#318=AXIS2_PLACEMENT_3D('',#462,#378,#379);
#319=AXIS2_PLACEMENT_3D('',#463,#380,#381);
#320=AXIS2_PLACEMENT_3D('',#465,#382,#383);
#321=AXIS2_PLACEMENT_3D('',#468,#385,#386);
#322=AXIS2_PLACEMENT_3D('',#469,#387,#388);
#323=AXIS2_PLACEMENT_3D('',#478,#393,#394);
#324=AXIS2_PLACEMENT_3D('',#484,#398,#399);
#325=AXIS2_PLACEMENT_3D('',#490,#403,#404);
#326=AXIS2_PLACEMENT_3D('',#493,#407,#408);
#327=AXIS2_PLACEMENT_3D('',#494,#409,#410);
#328=AXIS2_PLACEMENT_3D('',#495,#411,#412);
#329=DIRECTION('axis',(0.,0.,1.));
#330=DIRECTION('refdir',(1.,0.,0.));
#331=DIRECTION('center_axis',(-1.22464679914735E-16,1.,0.));
#332=DIRECTION('ref_axis',(-1.,-1.22464679914735E-16,0.));
#333=DIRECTION('center_axis',(1.22464679914735E-16,-1.,0.));
#334=DIRECTION('ref_axis',(1.,1.22464679914735E-16,0.));
#335=DIRECTION('',(-1.22464679914735E-16,1.,0.));
#336=DIRECTION('center_axis',(0.000844343292373603,0.999986105784362,0.00520339529833832));
#337=DIRECTION('ref_axis',(-0.160170494610866,0.00527145503880529,-0.987075288120356));
#338=DIRECTION('center_axis',(1.22464679914735E-16,-1.,0.));
#339=DIRECTION('ref_axis',(1.,1.22464679914735E-16,0.));
#340=DIRECTION('',(-1.22464679914735E-16,1.,0.));
#341=DIRECTION('center_axis',(-0.000844343292373603,-0.999986105784362,
-0.00520339529833832));
#342=DIRECTION('ref_axis',(-0.160170494610866,0.00527145503880529,-0.987075288120356));
#343=DIRECTION('center_axis',(0.000844343292373603,0.999986105784362,0.00520339529833832));
#344=DIRECTION('ref_axis',(-0.160170494610866,0.00527145503880529,-0.987075288120356));
#345=DIRECTION('center_axis',(0.,0.,-1.));
#346=DIRECTION('ref_axis',(-1.,0.,0.));
#347=DIRECTION('center_axis',(0.,0.,-1.));
#348=DIRECTION('ref_axis',(-1.,0.,0.));
#349=DIRECTION('',(0.,0.,1.));
#350=DIRECTION('center_axis',(0.,0.,1.));
#351=DIRECTION('ref_axis',(1.,0.,0.));
#352=DIRECTION('center_axis',(0.,0.,1.));
#353=DIRECTION('ref_axis',(1.,0.,0.));
#354=DIRECTION('center_axis',(-0.000844343292373603,-0.999986105784362,
-0.00520339529833832));
#355=DIRECTION('ref_axis',(0.990017083482584,-0.000102510774131143,-0.140947379912432));
#356=DIRECTION('center_axis',(-0.000844343292373603,-0.999986105784362,
-0.00520339529833832));
#357=DIRECTION('ref_axis',(-0.160170494610866,0.00527145503880529,-0.987075288120356));
#358=DIRECTION('',(-0.987089002947772,0.,0.160172720085452));
#359=DIRECTION('center_axis',(-0.000844343292373603,-0.999986105784362,
-0.00520339529833832));
#360=DIRECTION('ref_axis',(0.990017083482584,-0.000102510774131143,-0.140947379912432));
#361=DIRECTION('center_axis',(0.000844343292373603,0.999986105784362,0.00520339529833832));
#362=DIRECTION('ref_axis',(-0.940772863036925,0.00255846665872512,-0.339027837237098));
#363=DIRECTION('center_axis',(0.,-1.,0.));
#364=DIRECTION('ref_axis',(-0.160172720085467,0.,-0.98708900294777));
#365=DIRECTION('center_axis',(-0.000844343292373603,-0.999986105784362,
-0.00520339529833832));
#366=DIRECTION('ref_axis',(0.990017083482584,-0.000102510774131143,-0.140947379912432));
#367=DIRECTION('center_axis',(-0.000844343292373603,-0.999986105784362,
-0.00520339529833832));
#368=DIRECTION('ref_axis',(0.990017083482584,-0.000102510774131143,-0.140947379912432));
#369=DIRECTION('center_axis',(-1.22464679914735E-16,1.,0.));
#370=DIRECTION('ref_axis',(-1.,-1.22464679914735E-16,0.));
#371=DIRECTION('center_axis',(1.22464679914735E-16,-1.,0.));
#372=DIRECTION('ref_axis',(1.,1.22464679914735E-16,0.));
#373=DIRECTION('center_axis',(-1.,0.,0.));
#374=DIRECTION('ref_axis',(0.,0.,1.));
#375=DIRECTION('center_axis',(-1.,0.,0.));
#376=DIRECTION('ref_axis',(0.,0.,1.));
#377=DIRECTION('',(-1.,0.,0.));
#378=DIRECTION('center_axis',(-1.,0.,0.));
#379=DIRECTION('ref_axis',(0.,0.,1.));
#380=DIRECTION('center_axis',(-1.,0.,0.));
#381=DIRECTION('ref_axis',(0.,0.,1.));
#382=DIRECTION('center_axis',(-1.,0.,0.));
#383=DIRECTION('ref_axis',(0.,0.,1.));
#384=DIRECTION('',(-1.,0.,0.));
#385=DIRECTION('center_axis',(-1.,0.,0.));
#386=DIRECTION('ref_axis',(0.,0.,1.));
#387=DIRECTION('center_axis',(1.,1.22464679914735E-16,0.));
#388=DIRECTION('ref_axis',(-1.22464679914735E-16,1.,0.));
#389=DIRECTION('',(1.22464679914735E-16,-1.,0.));
#390=DIRECTION('',(0.,0.,-1.));
#391=DIRECTION('',(1.22464679914735E-16,-1.,0.));
#392=DIRECTION('',(0.,0.,-1.));
#393=DIRECTION('center_axis',(0.,1.,0.));
#394=DIRECTION('ref_axis',(0.,0.,1.));
#395=DIRECTION('',(1.,0.,0.));
#396=DIRECTION('',(0.,0.,-1.));
#397=DIRECTION('',(1.,0.,0.));
#398=DIRECTION('center_axis',(-1.,0.,0.));
#399=DIRECTION('ref_axis',(0.,0.,1.));
#400=DIRECTION('',(0.,1.,0.));
#401=DIRECTION('',(0.,0.,-1.));
#402=DIRECTION('',(0.,1.,0.));
#403=DIRECTION('center_axis',(0.,-1.,0.));
#404=DIRECTION('ref_axis',(0.,0.,-1.));
#405=DIRECTION('',(-1.,0.,0.));
#406=DIRECTION('',(-1.,0.,0.));
#407=DIRECTION('center_axis',(0.,0.,1.));
#408=DIRECTION('ref_axis',(1.,0.,0.));
#409=DIRECTION('center_axis',(0.,0.,1.));
#410=DIRECTION('ref_axis',(1.,0.,0.));
#411=DIRECTION('center_axis',(1.22464679914735E-16,-1.,0.));
#412=DIRECTION('ref_axis',(1.,1.22464679914735E-16,0.));
#413=CARTESIAN_POINT('',(0.,0.,0.));
#414=CARTESIAN_POINT('Origin',(-0.701531286662981,0.445489122995971,16.5));
#415=CARTESIAN_POINT('',(1.29846871333702,0.445489122995971,16.5));
#416=CARTESIAN_POINT('Origin',(-0.701531286662981,0.445489122995971,16.5));
#417=CARTESIAN_POINT('',(1.29846871333702,2.24412309425587,16.5));
#418=CARTESIAN_POINT('',(1.29846871333702,0.445489122995971,16.5));
#419=CARTESIAN_POINT('',(-2.06698393868281,2.25456880999505,15.0386516311666));
#420=CARTESIAN_POINT('Origin',(-0.701531286662982,2.24581180430392,16.5));
#421=CARTESIAN_POINT('',(-1.9962953858925,2.44548912299597,14.9756686950186));
#422=CARTESIAN_POINT('Ctrl Pts',(-2.06698393868278,2.25456880999503,15.0386516311666));
#423=CARTESIAN_POINT('Ctrl Pts',(-2.0444729218596,2.31865295091205,15.0176178186436));
#424=CARTESIAN_POINT('Ctrl Pts',(-2.02091893019976,2.38229366063755,14.9965838865263));
#425=CARTESIAN_POINT('Ctrl Pts',(-1.9962953858925,2.44548912299597,14.9756686950186));
#426=CARTESIAN_POINT('',(1.29846871333702,2.44548912299597,16.5));
#427=CARTESIAN_POINT('Origin',(-0.701531286662982,2.44548912299597,16.5));
#428=CARTESIAN_POINT('',(1.29846871333702,2.44412587313761,16.5));
#429=CARTESIAN_POINT('',(1.29846871333702,0.445489122995971,16.5));
#430=CARTESIAN_POINT('',(0.606420776838163,2.4368372019288,18.0130305349143));
#431=CARTESIAN_POINT('Origin',(-0.701531286662982,2.44581458318565,16.5));
#432=CARTESIAN_POINT('',(0.680136050870966,2.23712082959826,17.9460274438585));
#433=CARTESIAN_POINT('Ctrl Pts',(0.606420776838186,2.43683720192882,18.0130305349143));
#434=CARTESIAN_POINT('Ctrl Pts',(0.632155504045713,2.37075203119998,17.9907839319688));
#435=CARTESIAN_POINT('Ctrl Pts',(0.65671692389957,2.30417953731622,17.968404227195));
#436=CARTESIAN_POINT('Ctrl Pts',(0.680136050870966,2.23712082959826,17.9460274438585));
#437=CARTESIAN_POINT('Origin',(-0.701531286662982,2.24581180430392,16.5));
#438=CARTESIAN_POINT('Origin',(-0.68227962956202,-0.0220362277439719,55.3446801221738));
#439=CARTESIAN_POINT('',(0.76772037043798,-0.0220362277439721,40.5));
#440=CARTESIAN_POINT('Origin',(-0.68227962956202,-0.0220362277439719,40.5));
#441=CARTESIAN_POINT('',(0.76772037043798,-0.0220362277439721,55.3446801221738));
#442=CARTESIAN_POINT('',(0.76772037043798,-0.0220362277439721,55.3446801221738));
#443=CARTESIAN_POINT('Origin',(-0.68227962956202,-0.0220362277439719,55.3446801221738));
#444=CARTESIAN_POINT('Origin',(-0.68227962956202,-0.0220362277439719,55.3446801221738));
#445=CARTESIAN_POINT('Origin',(-0.688203329636267,2.44586261251037,16.4886070488386));
#446=CARTESIAN_POINT('',(1.28159480790603,2.44548912299597,16.2407493625091));
#447=CARTESIAN_POINT('Origin',(-0.701531286662982,2.44581458318565,16.5));
#448=CARTESIAN_POINT('',(1.29608380315438,2.44548912299597,16.2383982657253));
#449=CARTESIAN_POINT('',(-3.79943633306239,2.44548912299597,17.0652368973287));
#450=CARTESIAN_POINT('Origin',(-0.688203329636267,2.44586261251037,16.4886070488386));
#451=CARTESIAN_POINT('Origin',(-0.688372198294742,2.2458653913535,16.487566369779));
#452=CARTESIAN_POINT('Origin',(-0.688203644994015,2.44548912299597,16.4886051053981));
#453=CARTESIAN_POINT('Origin',(-0.688372198294742,2.2458653913535,16.487566369779));
#454=CARTESIAN_POINT('Origin',(-0.688372198294742,2.2458653913535,16.487566369779));
#455=CARTESIAN_POINT('Origin',(-0.701531286662981,0.445489122995971,16.5));
#456=CARTESIAN_POINT('Origin',(-0.701531286662982,2.44548912299597,16.5));
#457=CARTESIAN_POINT('Origin',(-3.20153128666298,1.45350318166774,33.4996202365931));
#458=CARTESIAN_POINT('',(1.79846871333702,1.45350318166774,32.6996202365931));
#459=CARTESIAN_POINT('Origin',(1.79846871333702,1.45350318166774,33.4996202365931));
#460=CARTESIAN_POINT('',(-3.20153128666298,1.45350318166774,32.6996202365931));
#461=CARTESIAN_POINT('',(-3.20153128666298,1.45350318166774,32.6996202365931));
#462=CARTESIAN_POINT('Origin',(-3.20153128666298,1.45350318166774,33.4996202365931));
#463=CARTESIAN_POINT('Origin',(-3.20153128666298,1.46402869373678,19.495017818659));
#464=CARTESIAN_POINT('',(1.79846871333702,1.46402869373678,18.695017818659));
#465=CARTESIAN_POINT('Origin',(1.79846871333702,1.46402869373678,19.495017818659));
#466=CARTESIAN_POINT('',(-3.20153128666298,1.46402869373678,18.695017818659));
#467=CARTESIAN_POINT('',(-3.20153128666298,1.46402869373678,18.695017818659));
#468=CARTESIAN_POINT('Origin',(-3.20153128666298,1.46402869373678,19.495017818659));
#469=CARTESIAN_POINT('Origin',(-3.20153128666298,2.44548912299597,40.5));
#470=CARTESIAN_POINT('',(-3.20153128666298,2.44548912299597,13.5));
#471=CARTESIAN_POINT('',(-3.20153128666298,-2.55451087700403,13.5));
#472=CARTESIAN_POINT('',(-3.20153128666298,2.44548912299597,13.5));
#473=CARTESIAN_POINT('',(-3.20153128666298,-2.55451087700403,40.5));
#474=CARTESIAN_POINT('',(-3.20153128666298,-2.55451087700403,40.5));
#475=CARTESIAN_POINT('',(-3.20153128666298,2.44548912299597,40.5));
#476=CARTESIAN_POINT('',(-3.20153128666298,2.44548912299597,40.5));
#477=CARTESIAN_POINT('',(-3.20153128666298,2.44548912299597,40.5));
#478=CARTESIAN_POINT('Origin',(-3.20153128666298,-2.55451087700403,40.5));
#479=CARTESIAN_POINT('',(1.79846871333702,-2.55451087700403,13.5));
#480=CARTESIAN_POINT('',(-3.20153128666298,-2.55451087700403,13.5));
#481=CARTESIAN_POINT('',(1.79846871333702,-2.55451087700403,40.5));
#482=CARTESIAN_POINT('',(1.79846871333702,-2.55451087700403,40.5));
#483=CARTESIAN_POINT('',(-3.20153128666298,-2.55451087700403,40.5));
#484=CARTESIAN_POINT('Origin',(1.79846871333702,2.44548912299597,40.5));
#485=CARTESIAN_POINT('',(1.79846871333702,2.44548912299597,13.5));
#486=CARTESIAN_POINT('',(1.79846871333702,2.44548912299597,13.5));
#487=CARTESIAN_POINT('',(1.79846871333702,2.44548912299597,40.5));
#488=CARTESIAN_POINT('',(1.79846871333702,2.44548912299597,40.5));
#489=CARTESIAN_POINT('',(1.79846871333702,2.44548912299597,40.5));
#490=CARTESIAN_POINT('Origin',(-3.20153128666298,2.44548912299597,40.5));
#491=CARTESIAN_POINT('',(-3.20153128666298,2.44548912299597,13.5));
#492=CARTESIAN_POINT('',(-3.20153128666298,2.44548912299597,40.5));
#493=CARTESIAN_POINT('Origin',(-3.20153128666298,2.08834626585312,40.5));
#494=CARTESIAN_POINT('Origin',(-3.20153128666298,2.08834626585312,13.5));
#495=CARTESIAN_POINT('Origin',(-0.701531286662981,0.445489122995971,16.5));
#496=UNCERTAINTY_MEASURE_WITH_UNIT(LENGTH_MEASURE(0.01),#500,
'DISTANCE_ACCURACY_VALUE',
'Maximum model space distance between geometric entities at asserted c
onnectivities');
#497=UNCERTAINTY_MEASURE_WITH_UNIT(LENGTH_MEASURE(0.01),#500,
'DISTANCE_ACCURACY_VALUE',
'Maximum model space distance between geometric entities at asserted c
onnectivities');
#498=(
GEOMETRIC_REPRESENTATION_CONTEXT(3)
GLOBAL_UNCERTAINTY_ASSIGNED_CONTEXT((#496))
GLOBAL_UNIT_ASSIGNED_CONTEXT((#500,#502,#503))
REPRESENTATION_CONTEXT('','3D')
);
#499=(
GEOMETRIC_REPRESENTATION_CONTEXT(3)
GLOBAL_UNCERTAINTY_ASSIGNED_CONTEXT((#497))
GLOBAL_UNIT_ASSIGNED_CONTEXT((#500,#502,#503))
REPRESENTATION_CONTEXT('','3D')
);
#500=(
LENGTH_UNIT()
NAMED_UNIT(*)
SI_UNIT(.MILLI.,.METRE.)
);
#501=(
LENGTH_UNIT()
NAMED_UNIT(*)
SI_UNIT(.CENTI.,.METRE.)
);
#502=(
NAMED_UNIT(*)
PLANE_ANGLE_UNIT()
SI_UNIT($,.RADIAN.)
);
#503=(
NAMED_UNIT(*)
SI_UNIT($,.STERADIAN.)
SOLID_ANGLE_UNIT()
);
#504=SHAPE_DEFINITION_REPRESENTATION(#505,#506);
#505=PRODUCT_DEFINITION_SHAPE('',$,#508);
#506=SHAPE_REPRESENTATION('',(#296),#498);
#507=PRODUCT_DEFINITION_CONTEXT('part definition',#512,'design');
#508=PRODUCT_DEFINITION('Bauteil281','Bauteil281',#509,#507);
#509=PRODUCT_DEFINITION_FORMATION('',$,#514);
#510=PRODUCT_RELATED_PRODUCT_CATEGORY('Bauteil281','Bauteil281',(#514));
#511=APPLICATION_PROTOCOL_DEFINITION('international standard',
'automotive_design',2009,#512);
#512=APPLICATION_CONTEXT(
'Core Data for Automotive Mechanical Design Process');
#513=PRODUCT_CONTEXT('part definition',#512,'mechanical');
#514=PRODUCT('Bauteil281','Bauteil281',$,(#513));
#515=PRESENTATION_STYLE_ASSIGNMENT((#516));
#516=SURFACE_STYLE_USAGE(.BOTH.,#519);
#517=SURFACE_STYLE_RENDERING_WITH_PROPERTIES($,#523,(#518));
#518=SURFACE_STYLE_TRANSPARENT(0.);
#519=SURFACE_SIDE_STYLE('',(#520,#517));
#520=SURFACE_STYLE_FILL_AREA(#521);
#521=FILL_AREA_STYLE('',(#522));
#522=FILL_AREA_STYLE_COLOUR('',#523);
#523=COLOUR_RGB('',0.749019607843137,0.749019607843137,0.749019607843137);
ENDSEC;
END-ISO-10303-21;
